  0
SECTION
  2
HEADER
  9
$ACADVER
  1
AC1027
  9
$ACADMAINTVER
 70
   105
  9
$DWGCODEPAGE
  3
ANSI_1252
  9
$REQUIREDVERSIONS
160
                 0
  9
$INSBASE
 10
0.0
 20
0.0
 30
0.0
  9
$EXTMIN
 10
0.0
 20
0.0
 30
0.0
  9
$EXTMAX
 10
594.0
 20
420.0
 30
0.0
  9
$LIMMIN
 10
0.0
 20
0.0
  9
$LIMMAX
 10
594.0
 20
420.0
  9
$ORTHOMODE
 70
     0
  9
$REGENMODE
 70
     1
  9
$FILLMODE
 70
     1
  9
$QTEXTMODE
 70
     0
  9
$MIRRTEXT
 70
     1
  9
$LTSCALE
 40
1.0
  9
$ATTMODE
 70
     1
  9
$TEXTSIZE
 40
3.5
  9
$TRACEWID
 40
1.0
  9
$TEXTSTYLE
  7
Standard
  9
$CLAYER
  8
0
  9
$CELTYPE
  6
ByLayer
  9
$CECOLOR
 62
   256
  9
$CELTSCALE
 40
1.0
  9
$DISPSILH
 70
     0
  9
$DIMSCALE
 40
1.0
  9
$DIMASZ
 40
3.302
  9
$DIMEXO
 40
1.0
  9
$DIMDLI
 40
3.75
  9
$DIMRND
 40
0.0
  9
$DIMDLE
 40
0.0
  9
$DIMEXE
 40
1.0
  9
$DIMTP
 40
0.0
  9
$DIMTM
 40
0.0
  9
$DIMTXT
 40
3.5
  9
$DIMCEN
 40
2.5
  9
$DIMTSZ
 40
0.0
  9
$DIMTOL
 70
     0
  9
$DIMLIM
 70
     0
  9
$DIMTIH
 70
     1
  9
$DIMTOH
 70
     1
  9
$DIMSE1
 70
     0
  9
$DIMSE2
 70
     0
  9
$DIMTAD
 70
     1
  9
$DIMZIN
 70
     0
  9
$DIMBLK
  1

  9
$DIMASO
 70
     1
  9
$DIMSHO
 70
     1
  9
$DIMPOST
  1

  9
$DIMAPOST
  1

  9
$DIMALT
 70
     0
  9
$DIMALTD
 70
     3
  9
$DIMALTF
 40
0.0393700787
  9
$DIMLFAC
 40
10.0
  9
$DIMTOFL
 70
     1
  9
$DIMTVP
 40
0.0
  9
$DIMTIX
 70
     0
  9
$DIMSOXD
 70
     0
  9
$DIMSAH
 70
     0
  9
$DIMBLK1
  1

  9
$DIMBLK2
  1

  9
$DIMSTYLE
  2
ISO-25
  9
$DIMCLRD
 70
     0
  9
$DIMCLRE
 70
     0
  9
$DIMCLRT
 70
     0
  9
$DIMTFAC
 40
1.0
  9
$DIMGAP
 40
1.524
  9
$DIMJUST
 70
     0
  9
$DIMSD1
 70
     0
  9
$DIMSD2
 70
     0
  9
$DIMTOLJ
 70
     0
  9
$DIMTZIN
 70
     0
  9
$DIMALTZ
 70
     0
  9
$DIMALTTZ
 70
     0
  9
$DIMUPT
 70
     0
  9
$DIMDEC
 70
     2
  9
$DIMTDEC
 70
     2
  9
$DIMALTU
 70
     2
  9
$DIMALTTD
 70
     3
  9
$DIMTXSTY
  7
Standard
  9
$DIMAUNIT
 70
     0
  9
$DIMADEC
 70
     2
  9
$DIMALTRND
 40
0.0
  9
$DIMAZIN
 70
     0
  9
$DIMDSEP
 70
    44
  9
$DIMATFIT
 70
     3
  9
$DIMFRAC
 70
     0
  9
$DIMLDRBLK
  1

  9
$DIMLUNIT
 70
     2
  9
$DIMLWD
 70
    -2
  9
$DIMLWE
 70
    -2
  9
$DIMTMOVE
 70
     0
  9
$DIMFXL
 40
1.0
  9
$DIMFXLON
 70
     0
  9
$DIMJOGANG
 40
0.7853981634
  9
$DIMTFILL
 70
     0
  9
$DIMTFILLCLR
 70
     0
  9
$DIMARCSYM
 70
     0
  9
$DIMLTYPE
  6

  9
$DIMLTEX1
  6

  9
$DIMLTEX2
  6

  9
$DIMTXTDIRECTION
 70
     0
  9
$LUNITS
 70
     2
  9
$LUPREC
 70
     2
  9
$SKETCHINC
 40
1.0
  9
$FILLETRAD
 40
10.0
  9
$AUNITS
 70
     0
  9
$AUPREC
 70
     2
  9
$MENU
  1
.
  9
$ELEVATION
 40
0.0
  9
$PELEVATION
 40
0.0
  9
$THICKNESS
 40
0.0
  9
$LIMCHECK
 70
     0
  9
$CHAMFERA
 40
0.0
  9
$CHAMFERB
 40
0.0
  9
$CHAMFERC
 40
0.0
  9
$CHAMFERD
 40
0.0
  9
$SKPOLY
 70
     0
  9
$TDCREATE
 40
2459219.387498727
  9
$TDUCREATE
 40
2459219.34583206
  9
$TDUPDATE
 40
2459219.38750213
  9
$TDUUPDATE
 40
2459219.345835463
  9
$TDINDWG
 40
0.0000000116
  9
$TDUSRTIMER
 40
0.0000000116
  9
$USRTIMER
 70
     1
  9
$ANGBASE
 50
0.0
  9
$ANGDIR
 70
     0
  9
$PDMODE
 70
     0
  9
$PDSIZE
 40
-1.0
  9
$PLINEWID
 40
0.0
  9
$SPLFRAME
 70
     0
  9
$SPLINETYPE
 70
     6
  9
$SPLINESEGS
 70
     8
  9
$HANDSEED
  5
41C
  9
$SURFTAB1
 70
     6
  9
$SURFTAB2
 70
     6
  9
$SURFTYPE
 70
     6
  9
$SURFU
 70
     6
  9
$SURFV
 70
     6
  9
$UCSBASE
  2

  9
$UCSNAME
  2

  9
$UCSORG
 10
0.0
 20
0.0
 30
0.0
  9
$UCSXDIR
 10
1.0
 20
0.0
 30
0.0
  9
$UCSYDIR
 10
0.0
 20
1.0
 30
0.0
  9
$UCSORTHOREF
  2

  9
$UCSORTHOVIEW
 70
     0
  9
$UCSORGTOP
 10
0.0
 20
0.0
 30
0.0
  9
$UCSORGBOTTOM
 10
0.0
 20
0.0
 30
0.0
  9
$UCSORGLEFT
 10
0.0
 20
0.0
 30
0.0
  9
$UCSORGRIGHT
 10
0.0
 20
0.0
 30
0.0
  9
$UCSORGFRONT
 10
0.0
 20
0.0
 30
0.0
  9
$UCSORGBACK
 10
0.0
 20
0.0
 30
0.0
  9
$PUCSBASE
  2

  9
$PUCSNAME
  2

  9
$PUCSORG
 10
0.0
 20
0.0
 30
0.0
  9
$PUCSXDIR
 10
1.0
 20
0.0
 30
0.0
  9
$PUCSYDIR
 10
0.0
 20
1.0
 30
0.0
  9
$PUCSORTHOREF
  2

  9
$PUCSORTHOVIEW
 70
     0
  9
$PUCSORGTOP
 10
0.0
 20
0.0
 30
0.0
  9
$PUCSORGBOTTOM
 10
0.0
 20
0.0
 30
0.0
  9
$PUCSORGLEFT
 10
0.0
 20
0.0
 30
0.0
  9
$PUCSORGRIGHT
 10
0.0
 20
0.0
 30
0.0
  9
$PUCSORGFRONT
 10
0.0
 20
0.0
 30
0.0
  9
$PUCSORGBACK
 10
0.0
 20
0.0
 30
0.0
  9
$USERI1
 70
     0
  9
$USERI2
 70
     0
  9
$USERI3
 70
     0
  9
$USERI4
 70
     0
  9
$USERI5
 70
     0
  9
$USERR1
 40
0.0
  9
$USERR2
 40
0.0
  9
$USERR3
 40
0.0
  9
$USERR4
 40
0.0
  9
$USERR5
 40
0.0
  9
$WORLDVIEW
 70
     1
  9
$SHADEDGE
 70
     3
  9
$SHADEDIF
 70
    70
  9
$TILEMODE
 70
     1
  9
$MAXACTVP
 70
    64
  9
$PINSBASE
 10
0.0
 20
0.0
 30
0.0
  9
$PLIMCHECK
 70
     0
  9
$PEXTMIN
 10
1.0000000000E+20
 20
1.0000000000E+20
 30
1.0000000000E+20
  9
$PEXTMAX
 10
-1.0000000000E+20
 20
-1.0000000000E+20
 30
-1.0000000000E+20
  9
$PLIMMIN
 10
0.0
 20
0.0
  9
$PLIMMAX
 10
420.0
 20
297.0
  9
$UNITMODE
 70
     0
  9
$VISRETAIN
 70
     1
  9
$PLINEGEN
 70
     0
  9
$PSLTSCALE
 70
     1
  9
$TREEDEPTH
 70
  3020
  9
$CMLSTYLE
  2
Standard
  9
$CMLJUST
 70
     0
  9
$CMLSCALE
 40
20.0
  9
$PROXYGRAPHICS
 70
     1
  9
$MEASUREMENT
 70
     1
  9
$CELWEIGHT
370
    -1
  9
$ENDCAPS
280
     0
  9
$JOINSTYLE
280
     0
  9
$LWDISPLAY
290
     1
  9
$INSUNITS
 70
     4
  9
$HYPERLINKBASE
  1

  9
$STYLESHEET
  1

  9
$XEDIT
290
     1
  9
$CEPSNTYPE
380
     0
  9
$PSTYLEMODE
290
     1
  9
$FINGERPRINTGUID
  2
{36A289BC-7423-4A0B-8619-697D73B2C0F0}
  9
$VERSIONGUID
  2
{FAEB1C32-E019-11D5-929B-00C0DF256EC4}
  9
$EXTNAMES
290
     1
  9
$PSVPSCALE
 40
0.0
  9
$OLESTARTUP
290
     0
  9
$SORTENTS
280
   127
  9
$INDEXCTL
280
     0
  9
$HIDETEXT
280
     1
  9
$XCLIPFRAME
280
     2
  9
$HALOGAP
280
     0
  9
$OBSCOLOR
 70
   257
  9
$OBSLTYPE
280
     0
  9
$INTERSECTIONDISPLAY
280
     0
  9
$INTERSECTIONCOLOR
 70
   257
  9
$DIMASSOC
280
     2
  9
$PROJECTNAME
  1

  9
$CAMERADISPLAY
290
     0
  9
$LENSLENGTH
 40
50.0
  9
$CAMERAHEIGHT
 40
0.0
  9
$STEPSPERSEC
 40
2.0
  9
$STEPSIZE
 40
6.0
  9
$3DDWFPREC
 40
2.0
  9
$PSOLWIDTH
 40
5.0
  9
$PSOLHEIGHT
 40
80.0
  9
$LOFTANG1
 40
1.5707963268
  9
$LOFTANG2
 40
1.5707963268
  9
$LOFTMAG1
 40
0.0
  9
$LOFTMAG2
 40
0.0
  9
$LOFTPARAM
 70
     7
  9
$LOFTNORMALS
280
     1
  9
$LATITUDE
 40
37.795
  9
$LONGITUDE
 40
-122.394
  9
$NORTHDIRECTION
 40
0.0
  9
$TIMEZONE
 70
 -8000
  9
$LIGHTGLYPHDISPLAY
280
     1
  9
$TILEMODELIGHTSYNCH
280
     1
  9
$CMATERIAL
347
44
  9
$SOLIDHIST
280
     0
  9
$SHOWHIST
280
     1
  9
$DWFFRAME
280
     2
  9
$DGNFRAME
280
     2
  9
$REALWORLDSCALE
290
     1
  9
$INTERFERECOLOR
 62
   256
  9
$CSHADOW
280
     0
  9
$SHADOWPLANELOCATION
 40
0.0
  0
ENDSEC
  0
SECTION
  2
CLASSES
  0
CLASS
  1
ACDBDICTIONARYWDFLT
  2
AcDbDictionaryWithDefault
  3
ObjectDBX Classes
 90
        0
 91
        4
280
     0
281
     0
  0
CLASS
  1
VISUALSTYLE
  2
AcDbVisualStyle
  3
ObjectDBX Classes
 90
     4095
 91
        4
280
     0
281
     0
  0
CLASS
  1
MATERIAL
  2
AcDbMaterial
  3
ObjectDBX Classes
 90
     1153
 91
        4
280
     0
281
     0
  0
CLASS
  1
SCALE
  2
AcDbScale
  3
ObjectDBX Classes
 90
     1153
 91
        4
280
     0
281
     0
  0
CLASS
  1
TABLESTYLE
  2
AcDbTableStyle
  3
ObjectDBX Classes
 90
     4095
 91
        4
280
     0
281
     0
  0
CLASS
  1
MLEADERSTYLE
  2
AcDbMLeaderStyle
  3
ACDB_MLEADERSTYLE_CLASS
 90
     4095
 91
        4
280
     0
281
     0
  0
CLASS
  1
SUN
  2
AcDbSun
  3
SCENEOE
 90
     1153
 91
        4
280
     0
281
     0
  0
CLASS
  1
DICTIONARYVAR
  2
AcDbDictionaryVar
  3
ObjectDBX Classes
 90
        0
 91
        4
280
     0
281
     0
  0
CLASS
  1
CELLSTYLEMAP
  2
AcDbCellStyleMap
  3
ObjectDBX Classes
 90
     1152
 91
        4
280
     0
281
     0
  0
ENDSEC
  0
SECTION
  2
TABLES
  0
TABLE
  2
VPORT
  5
8
330
0
100
AcDbSymbolTable
 70
     1
  0
VPORT
  5
29
330
8
100
AcDbSymbolTableRecord
100
AcDbViewportTableRecord
  2
*Active
 70
     0
 10
0.0
 20
0.0
 11
1.0
 21
1.0
 12
297.0
 22
210.0
 13
0.0
 23
0.0
 14
10.0
 24
10.0
 15
10.0
 25
10.0
 16
0.0
 26
0.0
 36
1.0
 17
0.0
 27
0.0
 37
0.0
 40
420.0
 41
1.4142857143
 42
50.0
 43
0.0
 44
0.0
 50
0.0
 51
0.0
 71
     0
 72
  2000
 73
     1
 74
     3
 75
     0
 76
     0
 77
     0
 78
     0
281
     0
 65
     1
110
0.0
120
0.0
130
0.0
111
1.0
121
0.0
131
0.0
112
0.0
122
1.0
132
0.0
 79
     0
146
0.0
348
2F
 60
     3
 61
     5
292
     1
282
     1
141
0.0
142
0.0
 63
   250
361
6D
  0
ENDTAB
  0
TABLE
  2
LTYPE
  5
5
330
0
100
AcDbSymbolTable
 70
     6
  0
LTYPE
  5
14
330
5
100
AcDbSymbolTableRecord
100
AcDbLinetypeTableRecord
  2
ByBlock
 70
     0
  3

 72
    65
 73
     0
 40
0.0
  0
LTYPE
  5
15
330
5
100
AcDbSymbolTableRecord
100
AcDbLinetypeTableRecord
  2
ByLayer
 70
     0
  3

 72
    65
 73
     0
 40
0.0
  0
LTYPE
  5
16
330
5
100
AcDbSymbolTableRecord
100
AcDbLinetypeTableRecord
  2
Continuous
 70
     0
  3
Solid line
 72
    65
 73
     0
 40
0.0
  0
LTYPE
  5
6E
330
5
100
AcDbSymbolTableRecord
100
AcDbLinetypeTableRecord
  2
HIDDEN
 70
     0
  3
Hidden __ __ __ __ __ __ __ __ __ __ __ __ __ __
 72
    65
 73
     2
 40
1.905
 49
1.27
 74
     0
 49
-0.635
 74
     0
  0
LTYPE
  5
6F
330
5
100
AcDbSymbolTableRecord
100
AcDbLinetypeTableRecord
  2
PHANTOM
 70
     0
  3
Phantom ______  __  __  ______  __  __  ______
 72
    65
 73
     6
 40
12.7
 49
6.35
 74
     0
 49
-1.27
 74
     0
 49
1.27
 74
     0
 49
-1.27
 74
     0
 49
1.27
 74
     0
 49
-1.27
 74
     0
  0
LTYPE
  5
70
330
5
100
AcDbSymbolTableRecord
100
AcDbLinetypeTableRecord
  2
CENTER
 70
     0
  3
Center ____ _ ____ _ ____ _ ____ _ ____ _ ____
 72
    65
 73
     4
 40
10.16
 49
6.35
 74
     0
 49
-1.27
 74
     0
 49
1.27
 74
     0
 49
-1.27
 74
     0
  0
LTYPE
  5
71
330
5
100
AcDbSymbolTableRecord
100
AcDbLinetypeTableRecord
  2
CENTERX2
 70
     0
  3
Center (2x) ________  __  ________  __  _____
 72
    65
 73
     4
 40
20.32
 49
12.7
 74
     0
 49
-2.54
 74
     0
 49
2.54
 74
     0
 49
-2.54
 74
     0
  0
LTYPE
  5
72
330
5
100
AcDbSymbolTableRecord
100
AcDbLinetypeTableRecord
  2
DOT2
 70
     0
  3
Dot (.5x) ........................................
 72
    65
 73
     2
 40
0.635
 49
0.0
 74
     0
 49
-0.635
 74
     0
  0
ENDTAB
  0
TABLE
  2
LAYER
  5
2
330
0
100
AcDbSymbolTable
 70
    37
  0
LAYER
  5
10
330
2
100
AcDbSymbolTableRecord
100
AcDbLayerTableRecord
  2
0
 70
     0
 62
     7
  6
Continuous
370
    -3
390
F
347
46
348
0
  0
LAYER
  5
73
330
2
100
AcDbSymbolTableRecord
100
AcDbLayerTableRecord
  2
SLD-0
 70
     0
 62
     7
  6
Continuous
370
    -3
390
F
347
46
348
0
  0
LAYER
  5
74
330
2
100
AcDbSymbolTableRecord
100
AcDbLayerTableRecord
  2
RAHMEN025
 70
     0
 62
     7
  6
Continuous
370
    -3
390
F
347
46
348
0
  0
LAYER
  5
75
330
2
100
AcDbSymbolTableRecord
100
AcDbLayerTableRecord
  2
RAHMEN07
 70
     0
 62
     5
  6
Continuous
370
    -3
390
F
347
46
348
0
  0
LAYER
  5
76
330
2
100
AcDbSymbolTableRecord
100
AcDbLayerTableRecord
  2
RAHMEN05
 70
     0
 62
     6
  6
Continuous
370
    -3
390
F
347
46
348
0
  0
LAYER
  5
77
330
2
100
AcDbSymbolTableRecord
100
AcDbLayerTableRecord
  2
TB
 70
     0
 62
     7
  6
Continuous
370
    -3
390
F
347
46
348
0
  0
LAYER
  5
78
330
2
100
AcDbSymbolTableRecord
100
AcDbLayerTableRecord
  2
1-VIDNO
 70
     0
 62
     5
  6
Continuous
370
    -3
390
F
347
46
348
0
  0
LAYER
  5
79
330
2
100
AcDbSymbolTableRecord
100
AcDbLayerTableRecord
  2
2-NEVIDNO
 70
     0
 62
     5
  6
HIDDEN
370
    -3
390
F
347
46
348
0
  0
LAYER
  5
7A
330
2
100
AcDbSymbolTableRecord
100
AcDbLayerTableRecord
  2
O-GLAVE
 70
     0
 62
     5
  6
Continuous
370
    -3
390
F
347
46
348
0
  0
LAYER
  5
7B
330
2
100
AcDbSymbolTableRecord
100
AcDbLayerTableRecord
  2
O-TEKST
 70
     0
 62
     7
  6
Continuous
370
    -3
390
F
347
46
348
0
  0
LAYER
  5
7C
330
2
100
AcDbSymbolTableRecord
100
AcDbLayerTableRecord
  2
O-ZUNANJI
 70
     0
 62
     7
  6
Continuous
370
    -3
390
F
347
46
348
0
  0
LAYER
  5
7D
330
2
100
AcDbSymbolTableRecord
100
AcDbLayerTableRecord
  2
SLD-DEFPOINTS
 70
     0
 62
     7
  6
Continuous
370
    -3
390
F
347
46
348
0
  0
LAYER
  5
7E
330
2
100
AcDbSymbolTableRecord
100
AcDbLayerTableRecord
  2
3-POMOZNO
 70
     0
 62
     4
  6
Continuous
370
    -3
390
F
347
46
348
0
  0
LAYER
  5
7F
330
2
100
AcDbSymbolTableRecord
100
AcDbLayerTableRecord
  2
4-SREDNJICA
 70
     0
 62
     1
  6
CENTER
370
    -3
390
F
347
46
348
0
  0
LAYER
  5
80
330
2
100
AcDbSymbolTableRecord
100
AcDbLayerTableRecord
  2
5-SRAFURA
 70
     0
 62
     7
  6
Continuous
370
    -3
390
F
347
46
348
0
  0
LAYER
  5
81
330
2
100
AcDbSymbolTableRecord
100
AcDbLayerTableRecord
  2
6-KOTE
 70
     0
 62
     7
  6
Continuous
370
    -3
390
F
347
46
348
0
  0
LAYER
  5
82
330
2
100
AcDbSymbolTableRecord
100
AcDbLayerTableRecord
  2
7-TEKST
 70
     0
 62
     7
  6
Continuous
370
    -3
390
F
347
46
348
0
  0
LAYER
  5
83
330
2
100
AcDbSymbolTableRecord
100
AcDbLayerTableRecord
  2
8-VARJENJA
 70
     0
 62
     1
  6
Continuous
370
    -3
390
F
347
46
348
0
  0
LAYER
  5
84
330
2
100
AcDbSymbolTableRecord
100
AcDbLayerTableRecord
  2
BEMASSUNG
 70
     0
 62
     7
  6
Continuous
370
    -3
390
F
347
46
348
0
  0
LAYER
  5
85
330
2
100
AcDbSymbolTableRecord
100
AcDbLayerTableRecord
  2
UMRISS03
 70
     0
 62
     7
  6
Continuous
370
    -3
390
F
347
46
348
0
  0
LAYER
  5
86
330
2
100
AcDbSymbolTableRecord
100
AcDbLayerTableRecord
  2
UMRISS02
 70
     0
 62
     7
  6
Continuous
370
    -3
390
F
347
46
348
0
  0
LAYER
  5
87
330
2
100
AcDbSymbolTableRecord
100
AcDbLayerTableRecord
  2
HILFSLINIEN
 70
     0
 62
     7
  6
Continuous
370
    -3
390
F
347
46
348
0
  0
LAYER
  5
88
330
2
100
AcDbSymbolTableRecord
100
AcDbLayerTableRecord
  2
UMRISS03_-PSPAC_
 70
     0
 62
     7
  6
Continuous
370
    -3
390
F
347
46
348
0
  0
LAYER
  5
89
330
2
100
AcDbSymbolTableRecord
100
AcDbLayerTableRecord
  2
ACA_VARSAVE
 70
     0
 62
     7
  6
Continuous
370
    -3
390
F
347
46
348
0
  0
LAYER
  5
8A
330
2
100
AcDbSymbolTableRecord
100
AcDbLayerTableRecord
  2
KONTUREN
 70
     0
 62
     7
  6
Continuous
370
    -3
390
F
347
46
348
0
  0
LAYER
  5
8B
330
2
100
AcDbSymbolTableRecord
100
AcDbLayerTableRecord
  2
ACHSE
 70
     0
 62
     7
  6
Continuous
370
    -3
390
F
347
46
348
0
  0
LAYER
  5
8C
330
2
100
AcDbSymbolTableRecord
100
AcDbLayerTableRecord
  2
UNSICHTBAR
 70
     0
 62
     7
  6
Continuous
370
    -3
390
F
347
46
348
0
  0
LAYER
  5
8D
330
2
100
AcDbSymbolTableRecord
100
AcDbLayerTableRecord
  2
MASSE
 70
     0
 62
     7
  6
Continuous
370
    -3
390
F
347
46
348
0
  0
LAYER
  5
8E
330
2
100
AcDbSymbolTableRecord
100
AcDbLayerTableRecord
  2
RAND
 70
     0
 62
     7
  6
Continuous
370
    -3
390
F
347
46
348
0
  0
LAYER
  5
8F
330
2
100
AcDbSymbolTableRecord
100
AcDbLayerTableRecord
  2
D-TEXT
 70
     0
 62
     7
  6
Continuous
370
    -3
390
F
347
46
348
0
  0
LAYER
  5
90
330
2
100
AcDbSymbolTableRecord
100
AcDbLayerTableRecord
  2
F-TEXT
 70
     0
 62
     7
  6
Continuous
370
    -3
390
F
347
46
348
0
  0
LAYER
  5
91
330
2
100
AcDbSymbolTableRecord
100
AcDbLayerTableRecord
  2
I-TEXT
 70
     0
 62
     7
  6
Continuous
370
    -3
390
F
347
46
348
0
  0
LAYER
  5
92
330
2
100
AcDbSymbolTableRecord
100
AcDbLayerTableRecord
  2
D-TEXT-FETT
 70
     0
 62
     7
  6
Continuous
370
    -3
390
F
347
46
348
0
  0
LAYER
  5
93
330
2
100
AcDbSymbolTableRecord
100
AcDbLayerTableRecord
  2
F-TEXT-FETT
 70
     0
 62
     7
  6
Continuous
370
    -3
390
F
347
46
348
0
  0
LAYER
  5
94
330
2
100
AcDbSymbolTableRecord
100
AcDbLayerTableRecord
  2
I-TEXT-FETT
 70
     0
 62
     7
  6
Continuous
370
    -3
390
F
347
46
348
0
  0
LAYER
  5
95
330
2
100
AcDbSymbolTableRecord
100
AcDbLayerTableRecord
  2
TEXT-D-F-I
 70
     0
 62
     7
  6
Continuous
370
    -3
390
F
347
46
348
0
  0
LAYER
  5
96
330
2
100
AcDbSymbolTableRecord
100
AcDbLayerTableRecord
  2
TEXT-D-F-I-FETT
 70
     0
 62
     7
  6
Continuous
370
    -3
390
F
347
46
348
0
  0
ENDTAB
  0
TABLE
  2
STYLE
  5
3
330
0
100
AcDbSymbolTable
 70
     2
  0
STYLE
  5
11
330
3
100
AcDbSymbolTableRecord
100
AcDbTextStyleTableRecord
  2
Standard
 70
     0
 40
0.0
 41
1.0
 50
0.0
 71
     0
 42
3.5
  3
txt
  4

  0
STYLE
  5
184
330
3
100
AcDbSymbolTableRecord
100
AcDbTextStyleTableRecord
  2
SLDTEXTSTYLE0
 70
     0
 40
0.0
 41
0.75
 50
0.0
 71
     0
 42
3.5
  3
TXT
  4

  0
ENDTAB
  0
TABLE
  2
VIEW
  5
6
330
0
100
AcDbSymbolTable
 70
     0
  0
ENDTAB
  0
TABLE
  2
UCS
  5
7
330
0
100
AcDbSymbolTable
 70
     0
  0
ENDTAB
  0
TABLE
  2
APPID
  5
9
330
0
100
AcDbSymbolTable
 70
     1
  0
APPID
  5
12
330
9
100
AcDbSymbolTableRecord
100
AcDbRegAppTableRecord
  2
ACAD
 70
     0
  0
ENDTAB
  0
TABLE
  2
DIMSTYLE
  5
A
330
0
100
AcDbSymbolTable
 70
     1
100
AcDbDimStyleTable
  0
DIMSTYLE
105
27
330
A
100
AcDbSymbolTableRecord
100
AcDbDimStyleTableRecord
  2
ISO-25
 70
     0
 41
2.5
 42
0.625
 43
3.75
 44
1.25
 73
     0
 74
     0
 77
     1
 78
     8
140
2.5
141
2.5
143
0.0393700787
147
0.625
171
     3
172
     1
178
     0
271
     2
272
     2
274
     3
278
    44
283
     0
284
     8
340
11
  0
ENDTAB
  0
TABLE
  2
BLOCK_RECORD
  5
1
330
0
100
AcDbSymbolTable
 70
     3
  0
BLOCK_RECORD
  5
1F
330
1
100
AcDbSymbolTableRecord
100
AcDbBlockTableRecord
  2
*Model_Space
340
22
 70
     0
280
     1
281
     0
  0
BLOCK_RECORD
  5
1B
330
1
100
AcDbSymbolTableRecord
100
AcDbBlockTableRecord
  2
*Paper_Space
340
1E
 70
     0
280
     1
281
     0
  0
BLOCK_RECORD
  5
23
330
1
100
AcDbSymbolTableRecord
100
AcDbBlockTableRecord
  2
*Paper_Space0
340
26
 70
     0
280
     1
281
     0
  0
BLOCK_RECORD
  5
268
330
1
100
AcDbSymbolTableRecord
100
AcDbBlockTableRecord
  2
SW_NOTE_0
340
0
102
{BLKREFS
331
26D
102
}
 70
     0
280
     1
281
     0
  0
BLOCK_RECORD
  5
2B1
330
1
100
AcDbSymbolTableRecord
100
AcDbBlockTableRecord
  2
SW_NOTE_1
340
0
102
{BLKREFS
331
2B6
102
}
 70
     0
280
     1
281
     0
  0
ENDTAB
  0
ENDSEC
  0
SECTION
  2
BLOCKS
  0
BLOCK
  5
20
330
1F
100
AcDbEntity
  8
0
100
AcDbBlockBegin
  2
*Model_Space
 70
     0
 10
0.0
 20
0.0
 30
0.0
  3
*Model_Space
  1

  0
ENDBLK
  5
21
330
1F
100
AcDbEntity
  8
0
100
AcDbBlockEnd
  0
BLOCK
  5
1C
330
1B
100
AcDbEntity
 67
     1
  8
0
100
AcDbBlockBegin
  2
*Paper_Space
 70
     0
 10
0.0
 20
0.0
 30
0.0
  3
*Paper_Space
  1

  0
ENDBLK
  5
1D
330
1B
100
AcDbEntity
 67
     1
  8
0
100
AcDbBlockEnd
  0
BLOCK
  5
24
330
23
100
AcDbEntity
  8
0
100
AcDbBlockBegin
  2
*Paper_Space0
 70
     0
 10
0.0
 20
0.0
 30
0.0
  3
*Paper_Space0
  1

  0
ENDBLK
  5
25
330
23
100
AcDbEntity
  8
0
100
AcDbBlockEnd
  0
BLOCK
  5
269
330
268
100
AcDbEntity
  8
0
100
AcDbBlockBegin
  2
SW_NOTE_0
 70
     0
 10
0.0
 20
0.0
 30
0.0
  3
SW_NOTE_0
  1

  0
MTEXT
  5
26B
330
268
100
AcDbEntity
  8
O-TEKST
 62
     0
100
AcDbMText
 10
16.0734375
 20
8.1855801476
 30
0.0
 40
6.35
 41
0.0
 46
0.0
 71
     2
 72
     1
  1
SCHNITT
  7
SLDTEXTSTYLE0
 73
     1
 44
1.0
  0
MTEXT
  5
26C
330
268
100
AcDbEntity
  8
O-TEKST
 62
     0
100
AcDbMText
 10
38.5538176
 20
5.3469457771
 30
0.0
 40
3.5
 41
0.0
 46
0.0
 71
     2
 72
     1
  1
A-A
  7
SLDTEXTSTYLE0
 73
     1
 44
1.0
  0
ENDBLK
  5
26A
330
268
100
AcDbEntity
  8
0
100
AcDbBlockEnd
  0
BLOCK
  5
2B2
330
2B1
100
AcDbEntity
  8
0
100
AcDbBlockBegin
  2
SW_NOTE_1
 70
     0
 10
0.0
 20
0.0
 30
0.0
  3
SW_NOTE_1
  1

  0
MTEXT
  5
2B4
330
2B1
100
AcDbEntity
  8
O-TEKST
 62
     0
100
AcDbMText
 10
16.0734375
 20
8.1855801476
 30
0.0
 40
6.35
 41
0.0
 46
0.0
 71
     2
 72
     1
  1
SCHNITT
  7
SLDTEXTSTYLE0
 73
     1
 44
1.0
  0
MTEXT
  5
2B5
330
2B1
100
AcDbEntity
  8
O-TEKST
 62
     0
100
AcDbMText
 10
38.0069426
 20
5.3469457771
 30
0.0
 40
3.5
 41
0.0
 46
0.0
 71
     2
 72
     1
  1
B-B
  7
SLDTEXTSTYLE0
 73
     1
 44
1.0
  0
ENDBLK
  5
2B3
330
2B1
100
AcDbEntity
  8
0
100
AcDbBlockEnd
  0
ENDSEC
  0
SECTION
  2
ENTITIES
  0
ARC
  5
97
330
1F
100
AcDbEntity
  8
0
  6
Continuous
 62
     7
370
    25
100
AcDbCircle
 10
-183.2682562403
 20
1.9755935999
 30
0.0
 40
0.700000000000017
100
AcDbArc
 50
0.0
 51
90.0
  0
LINE
  5
98
330
1F
100
AcDbEntity
  8
0
  6
Continuous
 62
     7
370
    25
100
AcDbLine
 10
-183.2682562403
 20
2.6755935999
 30
0.0
 11
-184.9682562403
 21
2.6755935999
 31
0.0
  0
ARC
  5
99
330
1F
100
AcDbEntity
  8
0
  6
Continuous
 62
     7
370
    25
100
AcDbCircle
 10
-184.9682562403
 20
1.9755935999
 30
0.0
 40
0.7000000000000008
100
AcDbArc
 50
90.0
 51
180.0
  0
LINE
  5
9A
330
1F
100
AcDbEntity
  8
0
  6
Continuous
 62
     7
370
    25
100
AcDbLine
 10
-185.6682562403
 20
1.9755935999
 30
0.0
 11
-185.6682562403
 21
1.7755935999
 31
0.0
  0
ARC
  5
9B
330
1F
100
AcDbEntity
  8
0
  6
Continuous
 62
     7
370
    25
100
AcDbCircle
 10
-184.9682562403
 20
1.7755935999
 30
0.0
 40
0.7000000000000008
100
AcDbArc
 50
180.0
 51
270.0
  0
LINE
  5
9C
330
1F
100
AcDbEntity
  8
0
  6
Continuous
 62
     7
370
    25
100
AcDbLine
 10
-184.9682562403
 20
1.0755935999
 30
0.0
 11
-183.2682562403
 21
1.0755935999
 31
0.0
  0
ARC
  5
9D
330
1F
100
AcDbEntity
  8
0
  6
Continuous
 62
     7
370
    25
100
AcDbCircle
 10
-183.2682562403
 20
1.7755935999
 30
0.0
 40
0.700000000000017
100
AcDbArc
 50
270.0
 51
0.0
  0
LINE
  5
9E
330
1F
100
AcDbEntity
  8
0
  6
Continuous
 62
     7
370
    25
100
AcDbLine
 10
-182.5682562403
 20
1.7755935999
 30
0.0
 11
-182.5682562403
 21
1.9755935999
 31
0.0
  0
LINE
  5
9F
330
1F
100
AcDbEntity
  8
0
  6
Continuous
 62
     7
370
    25
100
AcDbLine
 10
-183.2682562403
 20
2.8755935999
 30
0.0
 11
-184.9682562403
 21
2.8755935999
 31
0.0
  0
ARC
  5
A0
330
1F
100
AcDbEntity
  8
0
  6
Continuous
 62
     7
370
    25
100
AcDbCircle
 10
-183.2682562403
 20
1.9755935999
 30
0.0
 40
0.9000000000000341
100
AcDbArc
 50
0.0
 51
90.0
  0
LINE
  5
A1
330
1F
100
AcDbEntity
  8
0
  6
Continuous
 62
     7
370
    25
100
AcDbLine
 10
-182.3682562403
 20
1.7755935999
 30
0.0
 11
-182.3682562403
 21
1.9755935999
 31
0.0
  0
ARC
  5
A2
330
1F
100
AcDbEntity
  8
0
  6
Continuous
 62
     7
370
    25
100
AcDbCircle
 10
-183.2682562403
 20
1.7755935999
 30
0.0
 40
0.9000000000000341
100
AcDbArc
 50
270.0
 51
0.0
  0
ARC
  5
A3
330
1F
100
AcDbEntity
  8
0
  6
Continuous
 62
     7
370
    25
100
AcDbCircle
 10
-184.9682562403
 20
1.7755935999
 30
0.0
 40
0.8999999999999997
100
AcDbArc
 50
180.0
 51
270.0
  0
LINE
  5
A4
330
1F
100
AcDbEntity
  8
0
  6
Continuous
 62
     7
370
    25
100
AcDbLine
 10
-185.8682562403
 20
1.9755935999
 30
0.0
 11
-185.8682562403
 21
1.7755935999
 31
0.0
  0
ARC
  5
A5
330
1F
100
AcDbEntity
  8
0
  6
Continuous
 62
     7
370
    25
100
AcDbCircle
 10
-184.9682562403
 20
1.9755935999
 30
0.0
 40
0.9000000000000015
100
AcDbArc
 50
90.0
 51
180.0
  0
LINE
  5
A6
330
1F
100
AcDbEntity
  8
0
  6
Continuous
 62
     7
370
    25
100
AcDbLine
 10
-184.9682562403
 20
0.8755935999
 30
0.0
 11
-183.2682562403
 21
0.8755935999
 31
0.0
  0
LINE
  5
A7
330
1F
100
AcDbEntity
  8
0
  6
Continuous
 62
     7
370
    25
100
AcDbLine
 10
-184.9682562403
 20
18.8755935999
 30
0.0
 11
-183.2682562403
 21
18.8755935999
 31
0.0
  0
ARC
  5
A8
330
1F
100
AcDbEntity
  8
0
  6
Continuous
 62
     7
370
    25
100
AcDbCircle
 10
-183.2682562403
 20
19.5755935999
 30
0.0
 40
0.700000000000017
100
AcDbArc
 50
270.0
 51
0.0
  0
LINE
  5
A9
330
1F
100
AcDbEntity
  8
0
  6
Continuous
 62
     7
370
    25
100
AcDbLine
 10
-182.5682562403
 20
19.5755935999
 30
0.0
 11
-182.5682562403
 21
19.7755935999
 31
0.0
  0
ARC
  5
AA
330
1F
100
AcDbEntity
  8
0
  6
Continuous
 62
     7
370
    25
100
AcDbCircle
 10
-183.2682562403
 20
19.7755935999
 30
0.0
 40
0.700000000000017
100
AcDbArc
 50
0.0
 51
90.0
  0
LINE
  5
AB
330
1F
100
AcDbEntity
  8
0
  6
Continuous
 62
     7
370
    25
100
AcDbLine
 10
-183.2682562403
 20
20.4755935999
 30
0.0
 11
-184.9682562403
 21
20.4755935999
 31
0.0
  0
ARC
  5
AC
330
1F
100
AcDbEntity
  8
0
  6
Continuous
 62
     7
370
    25
100
AcDbCircle
 10
-184.9682562403
 20
19.5755935999
 30
0.0
 40
0.9000000000000057
100
AcDbArc
 50
180.0
 51
270.0
  0
LINE
  5
AD
330
1F
100
AcDbEntity
  8
0
  6
Continuous
 62
     7
370
    25
100
AcDbLine
 10
-185.8682562403
 20
19.7755935999
 30
0.0
 11
-185.8682562403
 21
19.5755935999
 31
0.0
  0
LINE
  5
AE
330
1F
100
AcDbEntity
  8
0
  6
Continuous
 62
     7
370
    25
100
AcDbLine
 10
-183.2682562403
 20
20.6755935999
 30
0.0
 11
-184.9682562403
 21
20.6755935999
 31
0.0
  0
ARC
  5
AF
330
1F
100
AcDbEntity
  8
0
  6
Continuous
 62
     7
370
    25
100
AcDbCircle
 10
-183.2682562403
 20
19.5755935999
 30
0.0
 40
0.9000000000000341
100
AcDbArc
 50
270.0
 51
0.0
  0
LINE
  5
B0
330
1F
100
AcDbEntity
  8
0
  6
Continuous
 62
     7
370
    25
100
AcDbLine
 10
-185.6682562403
 20
19.7755935999
 30
0.0
 11
-185.6682562403
 21
19.5755935999
 31
0.0
  0
ARC
  5
B1
330
1F
100
AcDbEntity
  8
0
  6
Continuous
 62
     7
370
    25
100
AcDbCircle
 10
-184.9682562403
 20
19.7755935999
 30
0.0
 40
0.6999999999999993
100
AcDbArc
 50
90.0
 51
180.0
  0
ARC
  5
B2
330
1F
100
AcDbEntity
  8
0
  6
Continuous
 62
     7
370
    25
100
AcDbCircle
 10
-183.2682562403
 20
19.7755935999
 30
0.0
 40
0.9000000000000341
100
AcDbArc
 50
0.0
 51
90.0
  0
LINE
  5
B3
330
1F
100
AcDbEntity
  8
0
  6
Continuous
 62
     7
370
    25
100
AcDbLine
 10
-182.3682562403
 20
19.5755935999
 30
0.0
 11
-182.3682562403
 21
19.7755935999
 31
0.0
  0
LINE
  5
B4
330
1F
100
AcDbEntity
  8
0
  6
Continuous
 62
     7
370
    25
100
AcDbLine
 10
-184.9682562403
 20
18.6755935999
 30
0.0
 11
-183.2682562403
 21
18.6755935999
 31
0.0
  0
ARC
  5
B5
330
1F
100
AcDbEntity
  8
0
  6
Continuous
 62
     7
370
    25
100
AcDbCircle
 10
-184.9682562403
 20
19.7755935999
 30
0.0
 40
0.8999999999999986
100
AcDbArc
 50
90.0
 51
180.0
  0
ARC
  5
B6
330
1F
100
AcDbEntity
  8
0
  6
Continuous
 62
     7
370
    25
100
AcDbCircle
 10
-184.9682562403
 20
19.5755935999
 30
0.0
 40
0.7000000000000028
100
AcDbArc
 50
180.0
 51
270.0
  0
LINE
  5
B7
330
1F
100
AcDbEntity
  8
0
  6
Continuous
 62
     7
370
    25
100
AcDbLine
 10
-216.1182562403
 20
-8.9244064001
 30
0.0
 11
-216.1182562403
 21
30.4755935999
 31
0.0
  0
LINE
  5
B8
330
1F
100
AcDbEntity
  8
0
  6
Continuous
 62
     7
370
    25
100
AcDbLine
 10
-152.1182562403
 20
30.4755935999
 30
0.0
 11
-152.1182562403
 21
-8.9244064001
 31
0.0
  0
LINE
  5
B9
330
1F
100
AcDbEntity
  8
0
  6
Continuous
 62
     7
370
    25
100
AcDbLine
 10
-152.1182562403
 20
-8.9244064001
 30
0.0
 11
-216.1182562403
 21
-8.9244064001
 31
0.0
  0
LINE
  5
BA
330
1F
100
AcDbEntity
  8
0
  6
Continuous
 62
     7
370
    25
100
AcDbLine
 10
-216.1182562403
 20
30.4755935999
 30
0.0
 11
-152.1182562403
 21
30.4755935999
 31
0.0
  0
LINE
  5
BB
330
1F
100
AcDbEntity
  8
0
  6
Continuous
 62
     7
370
    25
100
AcDbLine
 10
-216.1136282568
 20
30.4709656163
 30
0.0
 11
-152.1228842239
 21
30.4709656163
 31
0.0
  0
LINE
  5
BC
330
1F
100
AcDbEntity
  8
0
  6
Continuous
 62
     7
370
    25
100
AcDbLine
 10
-152.1228842239
 20
-8.9197784165
 30
0.0
 11
-216.1136282568
 21
-8.9197784165
 31
0.0
  0
LINE
  5
BD
330
1F
100
AcDbEntity
  8
0
  6
Continuous
 62
     7
370
    25
100
AcDbLine
 10
-152.1228842239
 20
30.4709656163
 30
0.0
 11
-152.1228842239
 21
-8.9197784165
 31
0.0
  0
LINE
  5
BE
330
1F
100
AcDbEntity
  8
0
  6
Continuous
 62
     7
370
    25
100
AcDbLine
 10
-216.1136282568
 20
-8.9197784165
 30
0.0
 11
-216.1136282568
 21
30.4709656163
 31
0.0
  0
LINE
  5
BF
330
1F
100
AcDbEntity
  8
0
  6
Continuous
 62
     7
370
    25
100
AcDbLine
 10
-151.8182562403
 20
30.7755935999
 30
0.0
 11
-151.8182562403
 21
-9.2244064001
 31
0.0
  0
LINE
  5
C0
330
1F
100
AcDbEntity
  8
0
  6
Continuous
 62
     7
370
    25
100
AcDbLine
 10
-151.8182562403
 20
-9.2244064001
 30
0.0
 11
-216.4182562403
 21
-9.2244064001
 31
0.0
  0
LINE
  5
C1
330
1F
100
AcDbEntity
  8
0
  6
Continuous
 62
     7
370
    25
100
AcDbLine
 10
-216.4182562403
 20
-9.2244064001
 30
0.0
 11
-216.4182562403
 21
30.7755935999
 31
0.0
  0
LINE
  5
C2
330
1F
100
AcDbEntity
  8
0
  6
Continuous
 62
     7
370
    25
100
AcDbLine
 10
-216.4182562403
 20
30.7755935999
 30
0.0
 11
-151.8182562403
 21
30.7755935999
 31
0.0
  0
LINE
  5
C3
330
1F
100
AcDbEntity
  8
0
  6
Continuous
 62
     7
370
    25
100
AcDbLine
 10
-128.2578380311
 20
74.0793466332
 30
0.0
 11
-124.2578380311
 21
74.0793466332
 31
0.0
  0
LINE
  5
C4
330
1F
100
AcDbEntity
  8
0
  6
Continuous
 62
     7
370
    25
100
AcDbLine
 10
-128.2578380311
 20
74.4792589066
 30
0.0
 11
-128.2578380311
 21
74.0793466332
 31
0.0
  0
LINE
  5
C5
330
1F
100
AcDbEntity
  8
0
  6
Continuous
 62
     7
370
    25
100
AcDbLine
 10
-128.2578380311
 20
74.4792589066
 30
0.0
 11
-124.2578380311
 21
74.4792589066
 31
0.0
  0
LINE
  5
C6
330
1F
100
AcDbEntity
  8
0
  6
Continuous
 62
     7
370
    25
100
AcDbLine
 10
-124.2578380311
 20
74.4792589066
 30
0.0
 11
-124.2578380311
 21
74.0793466332
 31
0.0
  0
LINE
  5
C7
330
1F
100
AcDbEntity
  8
0
  6
Continuous
 62
     7
370
    25
100
AcDbLine
 10
-128.2578380311
 20
74.5459742051
 30
0.0
 11
-128.2578380311
 21
74.4792589066
 31
0.0
  0
LINE
  5
C8
330
1F
100
AcDbEntity
  8
0
  6
Continuous
 62
     7
370
    25
100
AcDbLine
 10
-124.2578380311
 20
74.5459742051
 30
0.0
 11
-124.2578380311
 21
74.4792589066
 31
0.0
  0
LINE
  5
C9
330
1F
100
AcDbEntity
  8
0
  6
Continuous
 62
     7
370
    25
100
AcDbLine
 10
-125.5078380311
 20
74.5211437463
 30
0.0
 11
-127.0078380311
 21
74.5211437463
 31
0.0
  0
LWPOLYLINE
  5
CA
330
1F
100
AcDbEntity
  8
0
  6
Continuous
 62
     7
370
    25
100
AcDbPolyline
 90
       12
 70
   128
 43
0.0
 10
-127.0078380311
 20
74.5211437463
 10
-127.1487043096
 20
74.5207195888
 10
-127.2781584399
 20
74.5194814788
 10
-127.3857128183
 20
74.5175297206
 10
-127.4626540288
 20
74.5150224342
 10
-127.5027487521
 20
74.512162745
 10
-127.5027487521
 20
74.5091823279
 10
-127.4626540288
 20
74.5063226386
 10
-127.3857128183
 20
74.5038153522
 10
-127.2781584399
 20
74.501863594
 10
-127.1487043096
 20
74.500625484
 10
-127.0078380311
 20
74.5002013265
  0
LINE
  5
CB
330
1F
100
AcDbEntity
  8
0
  6
Continuous
 62
     7
370
    25
100
AcDbLine
 10
-127.0078380311
 20
74.5002013265
 30
0.0
 11
-125.5078380311
 21
74.5002013265
 31
0.0
  0
LWPOLYLINE
  5
CC
330
1F
100
AcDbEntity
  8
0
  6
Continuous
 62
     7
370
    25
100
AcDbPolyline
 90
       12
 70
   128
 43
0.0
 10
-125.5078380311
 20
74.5002013265
 10
-125.3669717527
 20
74.500625484
 10
-125.2375176224
 20
74.501863594
 10
-125.129963244
 20
74.5038153522
 10
-125.0530220335
 20
74.5063226386
 10
-125.0129273102
 20
74.5091823279
 10
-125.0129273102
 20
74.512162745
 10
-125.0530220335
 20
74.5150224342
 10
-125.129963244
 20
74.5175297206
 10
-125.2375176224
 20
74.5194814788
 10
-125.3669717527
 20
74.5207195888
 10
-125.5078380311
 20
74.5211437463
  0
LINE
  5
CD
330
1F
100
AcDbEntity
  8
0
  6
Continuous
 62
     7
370
    25
100
AcDbLine
 10
-124.2578380311
 20
74.6513387382
 30
0.0
 11
-124.2578380311
 21
74.5459742051
 31
0.0
  0
LINE
  5
CE
330
1F
100
AcDbEntity
  8
0
  6
Continuous
 62
     7
370
    25
100
AcDbLine
 10
-128.2578380311
 20
74.6513387382
 30
0.0
 11
-128.2578380311
 21
74.5459742051
 31
0.0
  0
LINE
  5
CF
330
1F
100
AcDbEntity
  8
0
  6
Continuous
 62
     7
370
    25
100
AcDbLine
 10
-128.2578380311
 20
76.14264126
 30
0.0
 11
-128.2578380311
 21
74.6513387382
 31
0.0
  0
LINE
  5
D0
330
1F
100
AcDbEntity
  8
0
  6
Continuous
 62
     7
370
    25
100
AcDbLine
 10
-124.2578380311
 20
76.14264126
 30
0.0
 11
-124.2578380311
 21
74.6513387382
 31
0.0
  0
LINE
  5
D1
330
1F
100
AcDbEntity
  8
0
  6
Continuous
 62
     7
370
    25
100
AcDbLine
 10
-128.2578380311
 20
76.3884918373
 30
0.0
 11
-128.2578380311
 21
76.14264126
 31
0.0
  0
LINE
  5
D2
330
1F
100
AcDbEntity
  8
0
  6
Continuous
 62
     7
370
    25
100
AcDbLine
 10
-124.2578380311
 20
76.3884918373
 30
0.0
 11
-124.2578380311
 21
76.14264126
 31
0.0
  0
LINE
  5
D3
330
1F
100
AcDbEntity
  8
0
  6
Continuous
 62
     7
370
    25
100
AcDbLine
 10
-128.2578380311
 20
76.3945338781
 30
0.0
 11
-128.2578380311
 21
76.3884918373
 31
0.0
  0
LINE
  5
D4
330
1F
100
AcDbEntity
  8
0
  6
Continuous
 62
     7
370
    25
100
AcDbLine
 10
-124.2578380311
 20
76.3945338781
 30
0.0
 11
-124.2578380311
 21
76.3884918373
 31
0.0
  0
LINE
  5
D5
330
1F
100
AcDbEntity
  8
0
  6
Continuous
 62
     7
370
    25
100
AcDbLine
 10
-124.2578380311
 20
-52.9280717068
 30
0.0
 11
-128.2578380311
 21
-52.9280717068
 31
0.0
  0
LINE
  5
D6
330
1F
100
AcDbEntity
  8
0
  6
Continuous
 62
     7
370
    25
100
AcDbLine
 10
-124.2578380311
 20
-52.9947870053
 30
0.0
 11
-124.2578380311
 21
-52.9280717068
 31
0.0
  0
LINE
  5
D7
330
1F
100
AcDbEntity
  8
0
  6
Continuous
 62
     7
370
    25
100
AcDbLine
 10
-127.0078380311
 20
-52.9699565465
 30
0.0
 11
-125.5078380311
 21
-52.9699565465
 31
0.0
  0
LWPOLYLINE
  5
D8
330
1F
100
AcDbEntity
  8
0
  6
Continuous
 62
     7
370
    25
100
AcDbPolyline
 90
       12
 70
   128
 43
0.0
 10
-125.5078380311
 20
-52.9699565465
 10
-125.3669717527
 20
-52.9695323889
 10
-125.2375176224
 20
-52.9682942789
 10
-125.129963244
 20
-52.9663425208
 10
-125.0530220335
 20
-52.9638352344
 10
-125.0129273102
 20
-52.9609755451
 10
-125.0129273102
 20
-52.957995128
 10
-125.0530220335
 20
-52.9551354388
 10
-125.129963244
 20
-52.9526281524
 10
-125.2375176224
 20
-52.9506763942
 10
-125.3669717527
 20
-52.9494382842
 10
-125.5078380311
 20
-52.9490141266
  0
LINE
  5
D9
330
1F
100
AcDbEntity
  8
0
  6
Continuous
 62
     7
370
    25
100
AcDbLine
 10
-125.5078380311
 20
-52.9490141266
 30
0.0
 11
-127.0078380311
 21
-52.9490141266
 31
0.0
  0
LWPOLYLINE
  5
DA
330
1F
100
AcDbEntity
  8
0
  6
Continuous
 62
     7
370
    25
100
AcDbPolyline
 90
       12
 70
   128
 43
0.0
 10
-127.0078380311
 20
-52.9490141266
 10
-127.1487043096
 20
-52.9494382842
 10
-127.2781584399
 20
-52.9506763942
 10
-127.3857128183
 20
-52.9526281524
 10
-127.4626540288
 20
-52.9551354388
 10
-127.5027487521
 20
-52.957995128
 10
-127.5027487521
 20
-52.9609755451
 10
-127.4626540288
 20
-52.9638352344
 10
-127.3857128183
 20
-52.9663425208
 10
-127.2781584399
 20
-52.9682942789
 10
-127.1487043096
 20
-52.9695323889
 10
-127.0078380311
 20
-52.9699565465
  0
LINE
  5
DB
330
1F
100
AcDbEntity
  8
0
  6
Continuous
 62
     7
370
    25
100
AcDbLine
 10
-128.2578380311
 20
-52.9947870053
 30
0.0
 11
-128.2578380311
 21
-52.9280717068
 31
0.0
  0
LINE
  5
DC
330
1F
100
AcDbEntity
  8
0
  6
Continuous
 62
     7
370
    25
100
AcDbLine
 10
-124.2578380311
 20
-52.5281594334
 30
0.0
 11
-128.2578380311
 21
-52.5281594334
 31
0.0
  0
LINE
  5
DD
330
1F
100
AcDbEntity
  8
0
  6
Continuous
 62
     7
370
    25
100
AcDbLine
 10
-124.2578380311
 20
-52.9280717068
 30
0.0
 11
-124.2578380311
 21
-52.5281594334
 31
0.0
  0
LINE
  5
DE
330
1F
100
AcDbEntity
  8
0
  6
Continuous
 62
     7
370
    25
100
AcDbLine
 10
-128.2578380311
 20
-52.9280717068
 30
0.0
 11
-128.2578380311
 21
-52.5281594334
 31
0.0
  0
LINE
  5
DF
330
1F
100
AcDbEntity
  8
0
  6
Continuous
 62
     7
370
    25
100
AcDbLine
 10
-128.2578380311
 20
-53.1001515384
 30
0.0
 11
-128.2578380311
 21
-52.9947870053
 31
0.0
  0
LINE
  5
E0
330
1F
100
AcDbEntity
  8
0
  6
Continuous
 62
     7
370
    25
100
AcDbLine
 10
-124.2578380311
 20
-53.1001515384
 30
0.0
 11
-124.2578380311
 21
-52.9947870053
 31
0.0
  0
LINE
  5
E1
330
1F
100
AcDbEntity
  8
0
  6
Continuous
 62
     7
370
    25
100
AcDbLine
 10
-128.2578380311
 20
-54.5914540602
 30
0.0
 11
-128.2578380311
 21
-53.1001515384
 31
0.0
  0
LINE
  5
E2
330
1F
100
AcDbEntity
  8
0
  6
Continuous
 62
     7
370
    25
100
AcDbLine
 10
-124.2578380311
 20
-54.5914540602
 30
0.0
 11
-124.2578380311
 21
-53.1001515384
 31
0.0
  0
LINE
  5
E3
330
1F
100
AcDbEntity
  8
0
  6
Continuous
 62
     7
370
    25
100
AcDbLine
 10
-124.2578380311
 20
-54.8373046374
 30
0.0
 11
-124.2578380311
 21
-54.5914540602
 31
0.0
  0
LINE
  5
E4
330
1F
100
AcDbEntity
  8
0
  6
Continuous
 62
     7
370
    25
100
AcDbLine
 10
-128.2578380311
 20
-54.8373046374
 30
0.0
 11
-128.2578380311
 21
-54.5914540602
 31
0.0
  0
LINE
  5
E5
330
1F
100
AcDbEntity
  8
0
  6
Continuous
 62
     7
370
    25
100
AcDbLine
 10
-128.2578380311
 20
-54.8433466783
 30
0.0
 11
-128.2578380311
 21
-54.8373046374
 31
0.0
  0
LINE
  5
E6
330
1F
100
AcDbEntity
  8
0
  6
Continuous
 62
     7
370
    25
100
AcDbLine
 10
-124.2578380311
 20
-54.8433466783
 30
0.0
 11
-124.2578380311
 21
-54.8373046374
 31
0.0
  0
ARC
  5
E7
330
1F
100
AcDbEntity
  8
0
  6
Continuous
 62
     7
370
    25
100
AcDbCircle
 10
-184.9682562403
 20
-52.6244064001
 30
0.0
 40
0.700000000000017
100
AcDbArc
 50
180.0
 51
270.0
  0
ARC
  5
E8
330
1F
100
AcDbEntity
  8
0
  6
Continuous
 62
     7
370
    25
100
AcDbCircle
 10
-183.2682562403
 20
-52.4244064001
 30
0.0
 40
0.700000000000017
100
AcDbArc
 50
0.0
 51
90.0
  0
LINE
  5
E9
330
1F
100
AcDbEntity
  8
0
  6
Continuous
 62
     7
370
    25
100
AcDbLine
 10
-183.2682562403
 20
-51.5244064001
 30
0.0
 11
-184.9682562403
 21
-51.5244064001
 31
0.0
  0
ARC
  5
EA
330
1F
100
AcDbEntity
  8
0
  6
Continuous
 62
     7
370
    25
100
AcDbCircle
 10
-183.2682562403
 20
-52.4244064001
 30
0.0
 40
0.9000000000000341
100
AcDbArc
 50
0.0
 51
90.0
  0
ARC
  5
EB
330
1F
100
AcDbEntity
  8
0
  6
Continuous
 62
     7
370
    25
100
AcDbCircle
 10
-184.9682562403
 20
-52.4244064001
 30
0.0
 40
0.8999999999999986
100
AcDbArc
 50
90.0
 51
180.0
  0
LINE
  5
EC
330
1F
100
AcDbEntity
  8
0
  6
Continuous
 62
     7
370
    25
100
AcDbLine
 10
-182.5682562403
 20
-52.6244064001
 30
0.0
 11
-182.5682562403
 21
-52.4244064001
 31
0.0
  0
ARC
  5
ED
330
1F
100
AcDbEntity
  8
0
  6
Continuous
 62
     7
370
    25
100
AcDbCircle
 10
-184.9682562403
 20
-52.4244064001
 30
0.0
 40
0.700000000000017
100
AcDbArc
 50
90.0
 51
180.0
  0
LINE
  5
EE
330
1F
100
AcDbEntity
  8
0
  6
Continuous
 62
     7
370
    25
100
AcDbLine
 10
-183.2682562403
 20
-51.7244064001
 30
0.0
 11
-184.9682562403
 21
-51.7244064001
 31
0.0
  0
ARC
  5
EF
330
1F
100
AcDbEntity
  8
0
  6
Continuous
 62
     7
370
    25
100
AcDbCircle
 10
-183.2682562403
 20
-52.6244064001
 30
0.0
 40
0.700000000000017
100
AcDbArc
 50
270.0
 51
0.0
  0
LINE
  5
F0
330
1F
100
AcDbEntity
  8
0
  6
Continuous
 62
     7
370
    25
100
AcDbLine
 10
-182.3682562403
 20
-52.6244064001
 30
0.0
 11
-182.3682562403
 21
-52.4244064001
 31
0.0
  0
ARC
  5
F1
330
1F
100
AcDbEntity
  8
0
  6
Continuous
 62
     7
370
    25
100
AcDbCircle
 10
-183.2682562403
 20
-52.6244064001
 30
0.0
 40
0.9000000000000341
100
AcDbArc
 50
270.0
 51
0.0
  0
LINE
  5
F2
330
1F
100
AcDbEntity
  8
0
  6
Continuous
 62
     7
370
    25
100
AcDbLine
 10
-185.8682562403
 20
-52.4244064001
 30
0.0
 11
-185.8682562403
 21
-52.6244064001
 31
0.0
  0
LINE
  5
F3
330
1F
100
AcDbEntity
  8
0
  6
Continuous
 62
     7
370
    25
100
AcDbLine
 10
-184.9682562403
 20
-53.3244064001
 30
0.0
 11
-183.2682562403
 21
-53.3244064001
 31
0.0
  0
LINE
  5
F4
330
1F
100
AcDbEntity
  8
0
  6
Continuous
 62
     7
370
    25
100
AcDbLine
 10
-185.6682562403
 20
-52.4244064001
 30
0.0
 11
-185.6682562403
 21
-52.6244064001
 31
0.0
  0
ARC
  5
F5
330
1F
100
AcDbEntity
  8
0
  6
Continuous
 62
     7
370
    25
100
AcDbCircle
 10
-184.9682562403
 20
-52.6244064001
 30
0.0
 40
0.8999999999999986
100
AcDbArc
 50
180.0
 51
270.0
  0
LINE
  5
F6
330
1F
100
AcDbEntity
  8
0
  6
Continuous
 62
     7
370
    25
100
AcDbLine
 10
-184.9682562403
 20
-53.5244064001
 30
0.0
 11
-183.2682562403
 21
-53.5244064001
 31
0.0
  0
LINE
  5
F7
330
1F
100
AcDbEntity
  8
0
  6
Continuous
 62
     7
370
    25
100
AcDbLine
 10
-182.5682562403
 20
-20.4244064001
 30
0.0
 11
-182.5682562403
 21
-20.2244064001
 31
0.0
  0
ARC
  5
F8
330
1F
100
AcDbEntity
  8
0
  6
Continuous
 62
     7
370
    25
100
AcDbCircle
 10
-183.2682562403
 20
-20.2244064001
 30
0.0
 40
0.700000000000017
100
AcDbArc
 50
0.0
 51
90.0
  0
LINE
  5
F9
330
1F
100
AcDbEntity
  8
0
  6
Continuous
 62
     7
370
    25
100
AcDbLine
 10
-183.2682562403
 20
-19.5244064001
 30
0.0
 11
-184.9682562403
 21
-19.5244064001
 31
0.0
  0
LINE
  5
FA
330
1F
100
AcDbEntity
  8
0
  6
Continuous
 62
     7
370
    25
100
AcDbLine
 10
-185.8682562403
 20
-20.2244064001
 30
0.0
 11
-185.8682562403
 21
-20.4244064001
 31
0.0
  0
ARC
  5
FB
330
1F
100
AcDbEntity
  8
0
  6
Continuous
 62
     7
370
    25
100
AcDbCircle
 10
-183.2682562403
 20
-20.4244064001
 30
0.0
 40
0.700000000000017
100
AcDbArc
 50
270.0
 51
0.0
  0
LINE
  5
FC
330
1F
100
AcDbEntity
  8
0
  6
Continuous
 62
     7
370
    25
100
AcDbLine
 10
-184.9682562403
 20
-21.1244064001
 30
0.0
 11
-183.2682562403
 21
-21.1244064001
 31
0.0
  0
LINE
  5
FD
330
1F
100
AcDbEntity
  8
0
  6
Continuous
 62
     7
370
    25
100
AcDbLine
 10
-185.6682562403
 20
-20.2244064001
 30
0.0
 11
-185.6682562403
 21
-20.4244064001
 31
0.0
  0
ARC
  5
FE
330
1F
100
AcDbEntity
  8
0
  6
Continuous
 62
     7
370
    25
100
AcDbCircle
 10
-184.9682562403
 20
-20.2244064001
 30
0.0
 40
0.700000000000017
100
AcDbArc
 50
90.0
 51
180.0
  0
LINE
  5
FF
330
1F
100
AcDbEntity
  8
0
  6
Continuous
 62
     7
370
    25
100
AcDbLine
 10
-184.9682562403
 20
-21.3244064001
 30
0.0
 11
-183.2682562403
 21
-21.3244064001
 31
0.0
  0
ARC
  5
100
330
1F
100
AcDbEntity
  8
0
  6
Continuous
 62
     7
370
    25
100
AcDbCircle
 10
-184.9682562403
 20
-20.4244064001
 30
0.0
 40
0.9000000000000021
100
AcDbArc
 50
180.0
 51
270.0
  0
ARC
  5
101
330
1F
100
AcDbEntity
  8
0
  6
Continuous
 62
     7
370
    25
100
AcDbCircle
 10
-184.9682562403
 20
-20.2244064001
 30
0.0
 40
0.8999999999999986
100
AcDbArc
 50
90.0
 51
180.0
  0
ARC
  5
102
330
1F
100
AcDbEntity
  8
0
  6
Continuous
 62
     7
370
    25
100
AcDbCircle
 10
-183.2682562403
 20
-20.2244064001
 30
0.0
 40
0.9000000000000341
100
AcDbArc
 50
0.0
 51
90.0
  0
ARC
  5
103
330
1F
100
AcDbEntity
  8
0
  6
Continuous
 62
     7
370
    25
100
AcDbCircle
 10
-183.2682562403
 20
-20.4244064001
 30
0.0
 40
0.9000000000000341
100
AcDbArc
 50
270.0
 51
0.0
  0
ARC
  5
104
330
1F
100
AcDbEntity
  8
0
  6
Continuous
 62
     7
370
    25
100
AcDbCircle
 10
-184.9682562403
 20
-20.4244064001
 30
0.0
 40
0.700000000000017
100
AcDbArc
 50
180.0
 51
270.0
  0
LINE
  5
105
330
1F
100
AcDbEntity
  8
0
  6
Continuous
 62
     7
370
    25
100
AcDbLine
 10
-182.3682562403
 20
-20.4244064001
 30
0.0
 11
-182.3682562403
 21
-20.2244064001
 31
0.0
  0
LINE
  5
106
330
1F
100
AcDbEntity
  8
0
  6
Continuous
 62
     7
370
    25
100
AcDbLine
 10
-183.2682562403
 20
-19.3244064001
 30
0.0
 11
-184.9682562403
 21
-19.3244064001
 31
0.0
  0
ARC
  5
107
330
1F
100
AcDbEntity
  8
0
  6
Continuous
 62
     7
370
    25
100
AcDbCircle
 10
-184.9682562403
 20
73.9755935999
 30
0.0
 40
0.700000000000017
100
AcDbArc
 50
180.0
 51
270.0
  0
LINE
  5
108
330
1F
100
AcDbEntity
  8
0
  6
Continuous
 62
     7
370
    25
100
AcDbLine
 10
-184.9682562403
 20
73.2755935999
 30
0.0
 11
-183.2682562403
 21
73.2755935999
 31
0.0
  0
ARC
  5
109
330
1F
100
AcDbEntity
  8
0
  6
Continuous
 62
     7
370
    25
100
AcDbCircle
 10
-183.2682562403
 20
73.9755935999
 30
0.0
 40
0.700000000000017
100
AcDbArc
 50
270.0
 51
0.0
  0
LINE
  5
10A
330
1F
100
AcDbEntity
  8
0
  6
Continuous
 62
     7
370
    25
100
AcDbLine
 10
-182.5682562403
 20
73.9755935999
 30
0.0
 11
-182.5682562403
 21
74.1755935999
 31
0.0
  0
ARC
  5
10B
330
1F
100
AcDbEntity
  8
0
  6
Continuous
 62
     7
370
    25
100
AcDbCircle
 10
-183.2682562403
 20
74.1755935999
 30
0.0
 40
0.700000000000017
100
AcDbArc
 50
0.0
 51
90.0
  0
LINE
  5
10C
330
1F
100
AcDbEntity
  8
0
  6
Continuous
 62
     7
370
    25
100
AcDbLine
 10
-183.2682562403
 20
74.8755935999
 30
0.0
 11
-184.9682562403
 21
74.8755935999
 31
0.0
  0
ARC
  5
10D
330
1F
100
AcDbEntity
  8
0
  6
Continuous
 62
     7
370
    25
100
AcDbCircle
 10
-184.9682562403
 20
74.1755935999
 30
0.0
 40
0.700000000000017
100
AcDbArc
 50
90.0
 51
180.0
  0
LINE
  5
10E
330
1F
100
AcDbEntity
  8
0
  6
Continuous
 62
     7
370
    25
100
AcDbLine
 10
-185.6682562403
 20
74.1755935999
 30
0.0
 11
-185.6682562403
 21
73.9755935999
 31
0.0
  0
LINE
  5
10F
330
1F
100
AcDbEntity
  8
0
  6
Continuous
 62
     7
370
    25
100
AcDbLine
 10
-184.9682562403
 20
73.0755935999
 30
0.0
 11
-183.2682562403
 21
73.0755935999
 31
0.0
  0
ARC
  5
110
330
1F
100
AcDbEntity
  8
0
  6
Continuous
 62
     7
370
    25
100
AcDbCircle
 10
-184.9682562403
 20
73.9755935999
 30
0.0
 40
0.8999999999999915
100
AcDbArc
 50
180.0
 51
270.0
  0
LINE
  5
111
330
1F
100
AcDbEntity
  8
0
  6
Continuous
 62
     7
370
    25
100
AcDbLine
 10
-185.8682562403
 20
74.1755935999
 30
0.0
 11
-185.8682562403
 21
73.9755935999
 31
0.0
  0
LINE
  5
112
330
1F
100
AcDbEntity
  8
0
  6
Continuous
 62
     7
370
    25
100
AcDbLine
 10
-182.3682562403
 20
73.9755935999
 30
0.0
 11
-182.3682562403
 21
74.1755935999
 31
0.0
  0
ARC
  5
113
330
1F
100
AcDbEntity
  8
0
  6
Continuous
 62
     7
370
    25
100
AcDbCircle
 10
-183.2682562403
 20
73.9755935999
 30
0.0
 40
0.9000000000000341
100
AcDbArc
 50
270.0
 51
0.0
  0
ARC
  5
114
330
1F
100
AcDbEntity
  8
0
  6
Continuous
 62
     7
370
    25
100
AcDbCircle
 10
-184.9682562403
 20
74.1755935999
 30
0.0
 40
0.9000000000000057
100
AcDbArc
 50
90.0
 51
180.0
  0
LINE
  5
115
330
1F
100
AcDbEntity
  8
0
  6
Continuous
 62
     7
370
    25
100
AcDbLine
 10
-183.2682562403
 20
75.0755935999
 30
0.0
 11
-184.9682562403
 21
75.0755935999
 31
0.0
  0
ARC
  5
116
330
1F
100
AcDbEntity
  8
0
  6
Continuous
 62
     7
370
    25
100
AcDbCircle
 10
-183.2682562403
 20
74.1755935999
 30
0.0
 40
0.9000000000000341
100
AcDbArc
 50
0.0
 51
90.0
  0
LINE
  5
117
330
1F
100
AcDbEntity
  8
0
  6
Continuous
 62
     7
370
    25
100
AcDbLine
 10
-183.2682562403
 20
42.6755935999
 30
0.0
 11
-184.9682562403
 21
42.6755935999
 31
0.0
  0
ARC
  5
118
330
1F
100
AcDbEntity
  8
0
  6
Continuous
 62
     7
370
    25
100
AcDbCircle
 10
-184.9682562403
 20
41.9755935999
 30
0.0
 40
0.700000000000017
100
AcDbArc
 50
90.0
 51
180.0
  0
LINE
  5
119
330
1F
100
AcDbEntity
  8
0
  6
Continuous
 62
     7
370
    25
100
AcDbLine
 10
-185.6682562403
 20
41.9755935999
 30
0.0
 11
-185.6682562403
 21
41.7755935999
 31
0.0
  0
ARC
  5
11A
330
1F
100
AcDbEntity
  8
0
  6
Continuous
 62
     7
370
    25
100
AcDbCircle
 10
-184.9682562403
 20
41.7755935999
 30
0.0
 40
0.700000000000017
100
AcDbArc
 50
180.0
 51
270.0
  0
LINE
  5
11B
330
1F
100
AcDbEntity
  8
0
  6
Continuous
 62
     7
370
    25
100
AcDbLine
 10
-184.9682562403
 20
41.0755935999
 30
0.0
 11
-183.2682562403
 21
41.0755935999
 31
0.0
  0
ARC
  5
11C
330
1F
100
AcDbEntity
  8
0
  6
Continuous
 62
     7
370
    25
100
AcDbCircle
 10
-183.2682562403
 20
41.9755935999
 30
0.0
 40
0.700000000000017
100
AcDbArc
 50
0.0
 51
90.0
  0
LINE
  5
11D
330
1F
100
AcDbEntity
  8
0
  6
Continuous
 62
     7
370
    25
100
AcDbLine
 10
-182.5682562403
 20
41.7755935999
 30
0.0
 11
-182.5682562403
 21
41.9755935999
 31
0.0
  0
ARC
  5
11E
330
1F
100
AcDbEntity
  8
0
  6
Continuous
 62
     7
370
    25
100
AcDbCircle
 10
-183.2682562403
 20
41.7755935999
 30
0.0
 40
0.700000000000017
100
AcDbArc
 50
270.0
 51
0.0
  0
ARC
  5
11F
330
1F
100
AcDbEntity
  8
0
  6
Continuous
 62
     7
370
    25
100
AcDbCircle
 10
-183.2682562403
 20
41.9755935999
 30
0.0
 40
0.9000000000000341
100
AcDbArc
 50
0.0
 51
90.0
  0
ARC
  5
120
330
1F
100
AcDbEntity
  8
0
  6
Continuous
 62
     7
370
    25
100
AcDbCircle
 10
-184.9682562403
 20
41.7755935999
 30
0.0
 40
0.8999999999999986
100
AcDbArc
 50
180.0
 51
270.0
  0
LINE
  5
121
330
1F
100
AcDbEntity
  8
0
  6
Continuous
 62
     7
370
    25
100
AcDbLine
 10
-185.8682562403
 20
41.9755935999
 30
0.0
 11
-185.8682562403
 21
41.7755935999
 31
0.0
  0
ARC
  5
122
330
1F
100
AcDbEntity
  8
0
  6
Continuous
 62
     7
370
    25
100
AcDbCircle
 10
-184.9682562403
 20
41.9755935999
 30
0.0
 40
0.8999999999999986
100
AcDbArc
 50
90.0
 51
180.0
  0
LINE
  5
123
330
1F
100
AcDbEntity
  8
0
  6
Continuous
 62
     7
370
    25
100
AcDbLine
 10
-183.2682562403
 20
42.8755935999
 30
0.0
 11
-184.9682562403
 21
42.8755935999
 31
0.0
  0
ARC
  5
124
330
1F
100
AcDbEntity
  8
0
  6
Continuous
 62
     7
370
    25
100
AcDbCircle
 10
-183.2682562403
 20
41.7755935999
 30
0.0
 40
0.9000000000000341
100
AcDbArc
 50
270.0
 51
0.0
  0
LINE
  5
125
330
1F
100
AcDbEntity
  8
0
  6
Continuous
 62
     7
370
    25
100
AcDbLine
 10
-184.9682562403
 20
40.8755935999
 30
0.0
 11
-183.2682562403
 21
40.8755935999
 31
0.0
  0
LINE
  5
126
330
1F
100
AcDbEntity
  8
0
  6
Continuous
 62
     7
370
    25
100
AcDbLine
 10
-182.3682562403
 20
41.7755935999
 30
0.0
 11
-182.3682562403
 21
41.9755935999
 31
0.0
  0
LINE
  5
127
330
1F
100
AcDbEntity
  8
0
  6
Continuous
 62
     7
370
    25
100
AcDbLine
 10
-216.1182562403
 20
31.1255935999
 30
0.0
 11
-216.1182562403
 21
84.8255935999
 31
0.0
  0
LINE
  5
128
330
1F
100
AcDbEntity
  8
0
  6
Continuous
 62
     7
370
    25
100
AcDbLine
 10
-216.1182562403
 20
84.8255935999
 30
0.0
 11
-152.1182562403
 21
84.8255935999
 31
0.0
  0
LINE
  5
129
330
1F
100
AcDbEntity
  8
0
  6
Continuous
 62
     7
370
    25
100
AcDbLine
 10
-152.1182562403
 20
84.8255935999
 30
0.0
 11
-152.1182562403
 21
31.1255935999
 31
0.0
  0
LINE
  5
12A
330
1F
100
AcDbEntity
  8
0
  6
Continuous
 62
     7
370
    25
100
AcDbLine
 10
-152.1182562403
 20
31.1255935999
 30
0.0
 11
-216.1182562403
 21
31.1255935999
 31
0.0
  0
LINE
  5
12B
330
1F
100
AcDbEntity
  8
0
  6
Continuous
 62
     7
370
    25
100
AcDbLine
 10
-216.1182562403
 20
-9.5744064001
 30
0.0
 11
-152.1182562403
 21
-9.5744064001
 31
0.0
  0
LINE
  5
12C
330
1F
100
AcDbEntity
  8
0
  6
Continuous
 62
     7
370
    25
100
AcDbLine
 10
-152.1182562403
 20
-9.5744064001
 30
0.0
 11
-152.1182562403
 21
-63.2744064001
 31
0.0
  0
LINE
  5
12D
330
1F
100
AcDbEntity
  8
0
  6
Continuous
 62
     7
370
    25
100
AcDbLine
 10
-216.1182562403
 20
-63.2744064001
 30
0.0
 11
-216.1182562403
 21
-9.5744064001
 31
0.0
  0
LINE
  5
12E
330
1F
100
AcDbEntity
  8
0
  6
Continuous
 62
     7
370
    25
100
AcDbLine
 10
-152.1182562403
 20
-63.2744064001
 30
0.0
 11
-216.1182562403
 21
-63.2744064001
 31
0.0
  0
LINE
  5
12F
330
1F
100
AcDbEntity
  8
0
  6
Continuous
 62
     7
370
    25
100
AcDbLine
 10
-152.1228842239
 20
31.1302215835
 30
0.0
 11
-216.1136282568
 21
31.1302215835
 31
0.0
  0
LINE
  5
130
330
1F
100
AcDbEntity
  8
0
  6
Continuous
 62
     7
370
    25
100
AcDbLine
 10
-152.1228842239
 20
84.8209656163
 30
0.0
 11
-152.1228842239
 21
31.1302215835
 31
0.0
  0
LINE
  5
131
330
1F
100
AcDbEntity
  8
0
  6
Continuous
 62
     7
370
    25
100
AcDbLine
 10
-216.1136282568
 20
84.8209656163
 30
0.0
 11
-152.1228842239
 21
84.8209656163
 31
0.0
  0
LINE
  5
132
330
1F
100
AcDbEntity
  8
0
  6
Continuous
 62
     7
370
    25
100
AcDbLine
 10
-216.1136282568
 20
31.1302215835
 30
0.0
 11
-216.1136282568
 21
84.8209656163
 31
0.0
  0
LINE
  5
133
330
1F
100
AcDbEntity
  8
0
  6
Continuous
 62
     7
370
    25
100
AcDbLine
 10
-151.8182562403
 20
30.8255935999
 30
0.0
 11
-216.4182562403
 21
30.8255935999
 31
0.0
  0
LINE
  5
134
330
1F
100
AcDbEntity
  8
0
  6
Continuous
 62
     7
370
    25
100
AcDbLine
 10
-216.4182562403
 20
30.8255935999
 30
0.0
 11
-216.4182562403
 21
85.1255935999
 31
0.0
  0
LINE
  5
135
330
1F
100
AcDbEntity
  8
0
  6
Continuous
 62
     7
370
    25
100
AcDbLine
 10
-216.4182562403
 20
85.1255935999
 30
0.0
 11
-151.8182562403
 21
85.1255935999
 31
0.0
  0
LINE
  5
136
330
1F
100
AcDbEntity
  8
0
  6
Continuous
 62
     7
370
    25
100
AcDbLine
 10
-151.8182562403
 20
85.1255935999
 30
0.0
 11
-151.8182562403
 21
30.8255935999
 31
0.0
  0
LINE
  5
137
330
1F
100
AcDbEntity
  8
0
  6
Continuous
 62
     7
370
    25
100
AcDbLine
 10
-152.1228842239
 20
-63.2697784165
 30
0.0
 11
-216.1136282568
 21
-63.2697784165
 31
0.0
  0
LINE
  5
138
330
1F
100
AcDbEntity
  8
0
  6
Continuous
 62
     7
370
    25
100
AcDbLine
 10
-152.1228842239
 20
-9.5790343837
 30
0.0
 11
-152.1228842239
 21
-63.2697784165
 31
0.0
  0
LINE
  5
139
330
1F
100
AcDbEntity
  8
0
  6
Continuous
 62
     7
370
    25
100
AcDbLine
 10
-216.1136282568
 20
-9.5790343837
 30
0.0
 11
-152.1228842239
 21
-9.5790343837
 31
0.0
  0
LINE
  5
13A
330
1F
100
AcDbEntity
  8
0
  6
Continuous
 62
     7
370
    25
100
AcDbLine
 10
-216.1136282568
 20
-63.2697784165
 30
0.0
 11
-216.1136282568
 21
-9.5790343837
 31
0.0
  0
LINE
  5
13B
330
1F
100
AcDbEntity
  8
0
  6
Continuous
 62
     7
370
    25
100
AcDbLine
 10
-151.8182562403
 20
-9.2744064001
 30
0.0
 11
-151.8182562403
 21
-63.5744064001
 31
0.0
  0
LINE
  5
13C
330
1F
100
AcDbEntity
  8
0
  6
Continuous
 62
     7
370
    25
100
AcDbLine
 10
-151.8182562403
 20
-63.5744064001
 30
0.0
 11
-216.4182562403
 21
-63.5744064001
 31
0.0
  0
LINE
  5
13D
330
1F
100
AcDbEntity
  8
0
  6
Continuous
 62
     7
370
    25
100
AcDbLine
 10
-216.4182562403
 20
-63.5744064001
 30
0.0
 11
-216.4182562403
 21
-9.2744064001
 31
0.0
  0
LINE
  5
13E
330
1F
100
AcDbEntity
  8
0
  6
Continuous
 62
     7
370
    25
100
AcDbLine
 10
-216.4182562403
 20
-9.2744064001
 30
0.0
 11
-151.8182562403
 21
-9.2744064001
 31
0.0
  0
LINE
  5
13F
330
1F
100
AcDbEntity
  8
0
  6
Continuous
 62
     7
370
    25
100
AcDbLine
 10
-151.7182562403
 20
84.7755935999
 30
0.0
 11
-151.7182562403
 21
-63.2244064001
 31
0.0
  0
LINE
  5
140
330
1F
100
AcDbEntity
  8
0
  6
Continuous
 62
     7
370
    25
100
AcDbLine
 10
-151.3182562403
 20
84.7755935999
 30
0.0
 11
-151.7182562403
 21
84.7755935999
 31
0.0
  0
LINE
  5
141
330
1F
100
AcDbEntity
  8
0
  6
Continuous
 62
     7
370
    25
100
AcDbLine
 10
-151.3182562403
 20
84.7755935999
 30
0.0
 11
-151.3182562403
 21
-63.2244064001
 31
0.0
  0
LINE
  5
142
330
1F
100
AcDbEntity
  8
0
  6
Continuous
 62
     7
370
    25
100
AcDbLine
 10
-151.3182562403
 20
-63.2244064001
 30
0.0
 11
-151.7182562403
 21
-63.2244064001
 31
0.0
  0
LINE
  5
143
330
1F
100
AcDbEntity
  8
0
  6
Continuous
 62
     7
370
    25
100
AcDbLine
 10
-159.6182562403
 20
30.8255935999
 30
0.0
 11
-159.6182562403
 21
30.7755935999
 31
0.0
  0
LINE
  5
144
330
1F
100
AcDbEntity
  8
0
  6
Continuous
 62
     7
370
    25
100
AcDbLine
 10
-159.6182562403
 20
-9.2244064001
 30
0.0
 11
-159.6182562403
 21
-9.2744064001
 31
0.0
  0
LINE
  5
145
330
1F
100
AcDbEntity
  8
0
  6
Continuous
 62
     7
370
    25
100
AcDbLine
 10
-151.8182562403
 20
84.7755935999
 30
0.0
 11
-151.7182562403
 21
84.7755935999
 31
0.0
  0
LINE
  5
146
330
1F
100
AcDbEntity
  8
0
  6
Continuous
 62
     7
370
    25
100
AcDbLine
 10
-151.8182562403
 20
-63.2244064001
 30
0.0
 11
-151.7182562403
 21
-63.2244064001
 31
0.0
  0
LINE
  5
147
330
1F
100
AcDbEntity
  8
0
  6
Continuous
 62
     7
370
    25
100
AcDbLine
 10
-163.6182562403
 20
30.8255935999
 30
0.0
 11
-163.6182562403
 21
30.7755935999
 31
0.0
  0
LINE
  5
148
330
1F
100
AcDbEntity
  8
0
  6
Continuous
 62
     7
370
    25
100
AcDbLine
 10
-163.6182562403
 20
-9.2244064001
 30
0.0
 11
-163.6182562403
 21
-9.2744064001
 31
0.0
  0
LINE
  5
149
330
1F
100
AcDbEntity
  8
0
  6
Continuous
 62
     7
370
    25
100
AcDbLine
 10
-164.2182562403
 20
85.2755935999
 30
0.0
 11
-164.2182562403
 21
85.1255935999
 31
0.0
  0
LINE
  5
14A
330
1F
100
AcDbEntity
  8
0
  6
Continuous
 62
     7
370
    25
100
AcDbLine
 10
-163.7182562403
 20
85.2755935999
 30
0.0
 11
-163.7182562403
 21
85.1255935999
 31
0.0
  0
LINE
  5
14B
330
1F
100
AcDbEntity
  8
0
  6
Continuous
 62
     7
370
    25
100
AcDbLine
 10
-159.0182562403
 20
85.2755935999
 30
0.0
 11
-159.0182562403
 21
85.1255935999
 31
0.0
  0
LINE
  5
14C
330
1F
100
AcDbEntity
  8
0
  6
Continuous
 62
     7
370
    25
100
AcDbLine
 10
-159.5182562403
 20
85.2755935999
 30
0.0
 11
-159.5182562403
 21
85.1255935999
 31
0.0
  0
LINE
  5
14D
330
1F
100
AcDbEntity
  8
0
  6
Continuous
 62
     7
370
    25
100
AcDbLine
 10
-164.2182562403
 20
-63.5744064001
 30
0.0
 11
-164.2182562403
 21
-63.7244064001
 31
0.0
  0
LINE
  5
14E
330
1F
100
AcDbEntity
  8
0
  6
Continuous
 62
     7
370
    25
100
AcDbLine
 10
-163.7182562403
 20
-63.5744064001
 30
0.0
 11
-163.7182562403
 21
-63.7244064001
 31
0.0
  0
LINE
  5
14F
330
1F
100
AcDbEntity
  8
0
  6
Continuous
 62
     7
370
    25
100
AcDbLine
 10
-159.5182562403
 20
-63.5744064001
 30
0.0
 11
-159.5182562403
 21
-63.7244064001
 31
0.0
  0
LINE
  5
150
330
1F
100
AcDbEntity
  8
0
  6
Continuous
 62
     7
370
    25
100
AcDbLine
 10
-159.0182562403
 20
-63.5744064001
 30
0.0
 11
-159.0182562403
 21
-63.7244064001
 31
0.0
  0
LINE
  5
151
330
1F
100
AcDbEntity
  8
0
  6
Continuous
 62
     7
370
    25
100
AcDbLine
 10
-141.1182562403
 20
85.2755935999
 30
0.0
 11
-141.1182562403
 21
85.6755935999
 31
0.0
  0
LINE
  5
152
330
1F
100
AcDbEntity
  8
0
  6
Continuous
 62
     7
370
    25
100
AcDbLine
 10
-141.1182562403
 20
85.6755935999
 30
0.0
 11
-216.5182562403
 21
85.6755935999
 31
0.0
  0
LINE
  5
153
330
1F
100
AcDbEntity
  8
0
  6
Continuous
 62
     7
370
    25
100
AcDbLine
 10
-141.1182562403
 20
85.2755935999
 30
0.0
 11
-216.5182562403
 21
85.2755935999
 31
0.0
  0
LINE
  5
154
330
1F
100
AcDbEntity
  8
0
  6
Continuous
 62
     7
370
    25
100
AcDbLine
 10
-216.5182562403
 20
85.2755935999
 30
0.0
 11
-216.5182562403
 21
85.6755935999
 31
0.0
  0
LINE
  5
155
330
1F
100
AcDbEntity
  8
0
  6
Continuous
 62
     7
370
    25
100
AcDbLine
 10
-207.0182562403
 20
85.1255935999
 30
0.0
 11
-207.0182562403
 21
85.2755935999
 31
0.0
  0
LINE
  5
156
330
1F
100
AcDbEntity
  8
0
  6
Continuous
 62
     7
370
    25
100
AcDbLine
 10
-166.1182562403
 20
85.2755935999
 30
0.0
 11
-166.1182562403
 21
85.1255935999
 31
0.0
  0
LINE
  5
157
330
1F
100
AcDbEntity
  8
0
  6
Continuous
 62
     7
370
    25
100
AcDbLine
 10
-216.5182562403
 20
-63.7244064001
 30
0.0
 11
-216.5182562403
 21
-64.1244064001
 31
0.0
  0
LINE
  5
158
330
1F
100
AcDbEntity
  8
0
  6
Continuous
 62
     7
370
    25
100
AcDbLine
 10
-141.1182562403
 20
-63.7244064001
 30
0.0
 11
-216.5182562403
 21
-63.7244064001
 31
0.0
  0
LINE
  5
159
330
1F
100
AcDbEntity
  8
0
  6
Continuous
 62
     7
370
    25
100
AcDbLine
 10
-141.1182562403
 20
-63.7244064001
 30
0.0
 11
-141.1182562403
 21
-64.1244064001
 31
0.0
  0
LINE
  5
15A
330
1F
100
AcDbEntity
  8
0
  6
Continuous
 62
     7
370
    25
100
AcDbLine
 10
-141.1182562403
 20
-64.1244064001
 30
0.0
 11
-216.5182562403
 21
-64.1244064001
 31
0.0
  0
LINE
  5
15B
330
1F
100
AcDbEntity
  8
0
  6
Continuous
 62
     7
370
    25
100
AcDbLine
 10
-166.1182562403
 20
-63.7244064001
 30
0.0
 11
-166.1182562403
 21
-63.5744064001
 31
0.0
  0
LINE
  5
15C
330
1F
100
AcDbEntity
  8
0
  6
Continuous
 62
     7
370
    25
100
AcDbLine
 10
-207.0182562403
 20
-63.5744064001
 30
0.0
 11
-207.0182562403
 21
-63.7244064001
 31
0.0
  0
LINE
  5
15D
330
1F
100
AcDbEntity
  8
0
  6
Continuous
 62
     7
370
    25
100
AcDbLine
 10
-216.9182562403
 20
-64.1244064001
 30
0.0
 11
-216.5182562403
 21
-64.1244064001
 31
0.0
  0
LINE
  5
15E
330
1F
100
AcDbEntity
  8
0
  6
Continuous
 62
     7
370
    25
100
AcDbLine
 10
-216.9182562403
 20
-64.1244064001
 30
0.0
 11
-216.9182562403
 21
85.6755935999
 31
0.0
  0
LINE
  5
15F
330
1F
100
AcDbEntity
  8
0
  6
Continuous
 62
     7
370
    25
100
AcDbLine
 10
-216.9182562403
 20
85.6755935999
 30
0.0
 11
-216.5182562403
 21
85.6755935999
 31
0.0
  0
LINE
  5
160
330
1F
100
AcDbEntity
  8
0
  6
Continuous
 62
     7
370
    25
100
AcDbLine
 10
-216.5182562403
 20
-64.1244064001
 30
0.0
 11
-216.5182562403
 21
85.6755935999
 31
0.0
  0
LINE
  5
161
330
1F
100
AcDbEntity
  8
0
  6
Continuous
 62
     7
370
    25
100
AcDbLine
 10
-207.0182562403
 20
-9.2744064001
 30
0.0
 11
-207.0182562403
 21
-9.2244064001
 31
0.0
  0
LINE
  5
162
330
1F
100
AcDbEntity
  8
0
  6
Continuous
 62
     7
370
    25
100
AcDbLine
 10
-207.0182562403
 20
30.7755935999
 30
0.0
 11
-207.0182562403
 21
30.8255935999
 31
0.0
  0
LINE
  5
163
330
1F
100
AcDbEntity
  8
0
  6
Continuous
 62
     7
370
    25
100
AcDbLine
 10
-96.2182562403
 20
84.9755935999
 30
0.0
 11
-96.2182562403
 21
-63.4244064001
 31
0.0
  0
LINE
  5
164
330
1F
100
AcDbEntity
  8
0
  6
Continuous
 62
     7
370
    25
100
AcDbLine
 10
-104.7993159621
 20
76.3945338781
 30
0.0
 11
-104.7993159621
 21
-54.8433466783
 31
0.0
  0
CIRCLE
  5
165
330
1F
100
AcDbEntity
  8
0
  6
Continuous
 62
     7
370
    25
100
AcDbCircle
 10
-100.7182562403
 20
-43.4244064001
 30
0.0
 40
0.5999999999999943
  0
CIRCLE
  5
166
330
1F
100
AcDbEntity
  8
0
  6
Continuous
 62
     7
370
    25
100
AcDbCircle
 10
-100.7182562403
 20
64.9755935999
 30
0.0
 40
0.5999999999999943
  0
LINE
  5
167
330
1F
100
AcDbEntity
  8
0
  6
Continuous
 62
     7
370
    25
100
AcDbLine
 10
-151.8182562403
 20
84.9755935999
 30
0.0
 11
-96.2182562403
 21
84.9755935999
 31
0.0
  0
LINE
  5
168
330
1F
100
AcDbEntity
  8
0
  6
Continuous
 62
     7
370
    25
100
AcDbLine
 10
-104.7993159621
 20
-54.8433466783
 30
0.0
 11
-151.3182562403
 21
-54.8433466783
 31
0.0
  0
LINE
  5
169
330
1F
100
AcDbEntity
  8
0
  6
Continuous
 62
     7
370
    25
100
AcDbLine
 10
-151.8182562403
 20
-63.4244064001
 30
0.0
 11
-96.2182562403
 21
-63.4244064001
 31
0.0
  0
LINE
  5
16A
330
1F
100
AcDbEntity
  8
0
  6
Continuous
 62
     7
370
    25
100
AcDbLine
 10
-151.3182562403
 20
76.3945338781
 30
0.0
 11
-104.7993159621
 21
76.3945338781
 31
0.0
  0
LINE
  5
16B
330
1F
100
AcDbEntity
  8
0
  6
PHANTOM
 62
     1
370
    18
100
AcDbLine
 10
-128.2578380311
 20
74.5459742051
 30
0.0
 11
-124.2578380311
 21
74.5459742051
 31
0.0
  0
LINE
  5
16C
330
1F
100
AcDbEntity
  8
0
  6
PHANTOM
 62
     1
370
    18
100
AcDbLine
 10
-127.0078380311
 20
74.5002013265
 30
0.0
 11
-127.0078380311
 21
74.5211437463
 31
0.0
  0
LINE
  5
16D
330
1F
100
AcDbEntity
  8
0
  6
PHANTOM
 62
     1
370
    18
100
AcDbLine
 10
-125.5078380311
 20
74.5002013265
 30
0.0
 11
-125.5078380311
 21
74.5211437463
 31
0.0
  0
LINE
  5
16E
330
1F
100
AcDbEntity
  8
0
  6
PHANTOM
 62
     1
370
    18
100
AcDbLine
 10
-128.2578380311
 20
74.6513387382
 30
0.0
 11
-124.2578380311
 21
74.6513387382
 31
0.0
  0
LINE
  5
16F
330
1F
100
AcDbEntity
  8
0
  6
PHANTOM
 62
     1
370
    18
100
AcDbLine
 10
-128.2578380311
 20
76.14264126
 30
0.0
 11
-124.2578380311
 21
76.14264126
 31
0.0
  0
LINE
  5
170
330
1F
100
AcDbEntity
  8
0
  6
PHANTOM
 62
     1
370
    18
100
AcDbLine
 10
-128.2578380311
 20
76.3884918373
 30
0.0
 11
-124.2578380311
 21
76.3884918373
 31
0.0
  0
LINE
  5
171
330
1F
100
AcDbEntity
  8
0
  6
PHANTOM
 62
     1
370
    18
100
AcDbLine
 10
-124.2578380311
 20
-52.9947870053
 30
0.0
 11
-128.2578380311
 21
-52.9947870053
 31
0.0
  0
LINE
  5
172
330
1F
100
AcDbEntity
  8
0
  6
PHANTOM
 62
     1
370
    18
100
AcDbLine
 10
-127.0078380311
 20
-52.9490141266
 30
0.0
 11
-127.0078380311
 21
-52.9699565465
 31
0.0
  0
LINE
  5
173
330
1F
100
AcDbEntity
  8
0
  6
PHANTOM
 62
     1
370
    18
100
AcDbLine
 10
-125.5078380311
 20
-52.9490141266
 30
0.0
 11
-125.5078380311
 21
-52.9699565465
 31
0.0
  0
LINE
  5
174
330
1F
100
AcDbEntity
  8
0
  6
PHANTOM
 62
     1
370
    18
100
AcDbLine
 10
-124.2578380311
 20
-53.1001515384
 30
0.0
 11
-128.2578380311
 21
-53.1001515384
 31
0.0
  0
LINE
  5
175
330
1F
100
AcDbEntity
  8
0
  6
PHANTOM
 62
     1
370
    18
100
AcDbLine
 10
-124.2578380311
 20
-54.5914540602
 30
0.0
 11
-128.2578380311
 21
-54.5914540602
 31
0.0
  0
LINE
  5
176
330
1F
100
AcDbEntity
  8
0
  6
PHANTOM
 62
     1
370
    18
100
AcDbLine
 10
-124.2578380311
 20
-54.8373046374
 30
0.0
 11
-128.2578380311
 21
-54.8373046374
 31
0.0
  0
LINE
  5
177
330
1F
100
AcDbEntity
  8
0
  6
PHANTOM
 62
     1
370
    18
100
AcDbLine
 10
-160.1182562403
 20
30.8255935999
 30
0.0
 11
-160.1182562403
 21
30.7755935999
 31
0.0
  0
LINE
  5
178
330
1F
100
AcDbEntity
  8
0
  6
PHANTOM
 62
     1
370
    18
100
AcDbLine
 10
-160.1182562403
 20
-9.2244064001
 30
0.0
 11
-160.1182562403
 21
-9.2744064001
 31
0.0
  0
LINE
  5
179
330
1F
100
AcDbEntity
  8
0
  6
PHANTOM
 62
     1
370
    18
100
AcDbLine
 10
-163.1182562403
 20
30.8255935999
 30
0.0
 11
-163.1182562403
 21
30.7755935999
 31
0.0
  0
LINE
  5
17A
330
1F
100
AcDbEntity
  8
0
  6
PHANTOM
 62
     1
370
    18
100
AcDbLine
 10
-163.1182562403
 20
-9.2244064001
 30
0.0
 11
-163.1182562403
 21
-9.2744064001
 31
0.0
  0
LINE
  5
17B
330
1F
100
AcDbEntity
  8
0
  6
PHANTOM
 62
     1
370
    18
100
AcDbLine
 10
-216.2182562403
 20
-63.7244064001
 30
0.0
 11
-216.2182562403
 21
-63.5744064001
 31
0.0
  0
LINE
  5
17C
330
1F
100
AcDbEntity
  8
0
  6
PHANTOM
 62
     1
370
    18
100
AcDbLine
 10
-216.2182562403
 20
-9.2744064001
 30
0.0
 11
-216.2182562403
 21
-9.2244064001
 31
0.0
  0
LINE
  5
17D
330
1F
100
AcDbEntity
  8
0
  6
PHANTOM
 62
     1
370
    18
100
AcDbLine
 10
-216.2182562403
 20
30.7755935999
 30
0.0
 11
-216.2182562403
 21
30.8255935999
 31
0.0
  0
LINE
  5
17E
330
1F
100
AcDbEntity
  8
0
  6
PHANTOM
 62
     1
370
    18
100
AcDbLine
 10
-216.2182562403
 20
85.1255935999
 30
0.0
 11
-216.2182562403
 21
85.2755935999
 31
0.0
  0
LINE
  5
17F
330
1F
100
AcDbEntity
  8
0
  6
PHANTOM
 62
     7
370
    35
100
AcDbLine
 10
-81.6742562403
 20
10.7755935999
 30
0.0
 11
-231.9622562403
 21
10.7755935999
 31
0.0
  0
LINE
  5
180
330
1F
100
AcDbEntity
  8
0
  6
Continuous
 62
     7
370
    35
100
AcDbLine
 10
-83.6742562403
 20
-1.2244064001
 30
0.0
 11
-83.6742562403
 21
10.7755935999
 31
0.0
  0
SOLID
  5
181
330
1F
100
AcDbEntity
  8
0
  6
Continuous
 62
     7
370
    35
100
AcDbTrace
 10
-83.6742562403
 20
10.7755935999
 30
0.0
 11
-85.1742562403
 21
4.7755935999
 31
0.0
 12
-82.1742562403
 22
4.7755935999
 32
0.0
 13
-82.1742562403
 23
4.7755935999
 33
0.0
  0
LINE
  5
182
330
1F
100
AcDbEntity
  8
0
  6
Continuous
 62
     7
370
    35
100
AcDbLine
 10
-229.9622562403
 20
-1.2244064001
 30
0.0
 11
-229.9622562403
 21
10.7755935999
 31
0.0
  0
SOLID
  5
183
330
1F
100
AcDbEntity
  8
0
  6
Continuous
 62
     7
370
    35
100
AcDbTrace
 10
-229.9622562403
 20
10.7755935999
 30
0.0
 11
-231.4622562403
 21
4.7755935999
 31
0.0
 12
-228.4622562403
 22
4.7755935999
 32
0.0
 13
-228.4622562403
 23
4.7755935999
 33
0.0
  0
MTEXT
  5
185
330
1F
100
AcDbEntity
  8
0
  6
Continuous
 62
     7
100
AcDbMText
 10
-81.1702766427
 20
8.8598944408
 30
0.0
 40
6.35
 41
0.0
 46
0.0
 71
     1
 72
     1
  1
A
  7
SLDTEXTSTYLE0
 73
     1
 44
1.0
  0
MTEXT
  5
186
330
1F
100
AcDbEntity
  8
0
  6
Continuous
 62
     7
100
AcDbMText
 10
-238.7261848321
 20
8.8598944408
 30
0.0
 40
6.35
 41
0.0
 46
0.0
 71
     1
 72
     1
  1
A
  7
SLDTEXTSTYLE0
 73
     1
 44
1.0
  0
LINE
  5
187
330
1F
100
AcDbEntity
  8
0
  6
PHANTOM
 62
     7
370
    35
100
AcDbLine
 10
-151.2182562403
 20
109.7731129481
 30
0.0
 11
-151.2182562403
 21
-77.6454543749
 31
0.0
  0
LINE
  5
188
330
1F
100
AcDbEntity
  8
0
  6
Continuous
 62
     7
370
    35
100
AcDbLine
 10
-163.2182562403
 20
107.7731129481
 30
0.0
 11
-151.2182562403
 21
107.7731129481
 31
0.0
  0
SOLID
  5
189
330
1F
100
AcDbEntity
  8
0
  6
Continuous
 62
     7
370
    35
100
AcDbTrace
 10
-151.2182562403
 20
107.7731129481
 30
0.0
 11
-157.2182562403
 21
109.2731129481
 31
0.0
 12
-157.2182562403
 22
106.2731129481
 32
0.0
 13
-157.2182562403
 23
106.2731129481
 33
0.0
  0
LINE
  5
18A
330
1F
100
AcDbEntity
  8
0
  6
Continuous
 62
     7
370
    35
100
AcDbLine
 10
-163.2182562403
 20
-75.6454543749
 30
0.0
 11
-151.2182562403
 21
-75.6454543749
 31
0.0
  0
SOLID
  5
18B
330
1F
100
AcDbEntity
  8
0
  6
Continuous
 62
     7
370
    35
100
AcDbTrace
 10
-151.2182562403
 20
-75.6454543749
 30
0.0
 11
-157.2182562403
 21
-74.1454543749
 31
0.0
 12
-157.2182562403
 22
-77.1454543749
 32
0.0
 13
-157.2182562403
 23
-77.1454543749
 33
0.0
  0
MTEXT
  5
18C
330
1F
100
AcDbEntity
  8
0
  6
Continuous
 62
     7
100
AcDbMText
 10
-163.2182562403
 20
117.857413789
 30
0.0
 40
6.35
 41
0.0
 46
0.0
 71
     1
 72
     1
  1
B
  7
SLDTEXTSTYLE0
 73
     1
 44
1.0
  0
MTEXT
  5
18D
330
1F
100
AcDbEntity
  8
0
  6
Continuous
 62
     7
100
AcDbMText
 10
-163.2182562403
 20
-79.0035265549
 30
0.0
 40
6.35
 41
0.0
 46
0.0
 71
     1
 72
     1
  1
B
  7
SLDTEXTSTYLE0
 73
     1
 44
1.0
  0
LINE
  5
18E
330
1F
100
AcDbEntity
  8
0
  6
Continuous
 62
     7
370
    25
100
AcDbLine
 10
-128.2578380311
 20
383.5181558606
 30
0.0
 11
-128.2578380311
 21
383.806599878
 31
0.0
  0
LINE
  5
18F
330
1F
100
AcDbEntity
  8
0
  6
Continuous
 62
     7
370
    25
100
AcDbLine
 10
-124.2578380311
 20
383.5181558606
 30
0.0
 11
-124.2578380311
 21
383.806599878
 31
0.0
  0
LINE
  5
190
330
1F
100
AcDbEntity
  8
0
  6
Continuous
 62
     7
370
    25
100
AcDbLine
 10
-128.2578380311
 20
383.806599878
 30
0.0
 11
-128.2578380311
 21
384.3247513343
 31
0.0
  0
LINE
  5
191
330
1F
100
AcDbEntity
  8
0
  6
Continuous
 62
     7
370
    25
100
AcDbLine
 10
-124.2578380311
 20
383.806599878
 30
0.0
 11
-124.2578380311
 21
384.3247513343
 31
0.0
  0
LINE
  5
192
330
1F
100
AcDbEntity
  8
0
  6
Continuous
 62
     7
370
    25
100
AcDbLine
 10
-124.2578380311
 20
384.3247513343
 30
0.0
 11
-124.2578380311
 21
385.5954552827
 31
0.0
  0
LINE
  5
193
330
1F
100
AcDbEntity
  8
0
  6
Continuous
 62
     7
370
    25
100
AcDbLine
 10
-128.2578380311
 20
384.3247513343
 30
0.0
 11
-128.2578380311
 21
385.5954552827
 31
0.0
  0
LINE
  5
194
330
1F
100
AcDbEntity
  8
0
  6
Continuous
 62
     7
370
    25
100
AcDbLine
 10
-124.2578380311
 20
385.5954552827
 30
0.0
 11
-124.2578380311
 21
385.8175201925
 31
0.0
  0
LINE
  5
195
330
1F
100
AcDbEntity
  8
0
  6
Continuous
 62
     7
370
    25
100
AcDbLine
 10
-128.2578380311
 20
385.5954552827
 30
0.0
 11
-128.2578380311
 21
385.8175201925
 31
0.0
  0
LINE
  5
196
330
1F
100
AcDbEntity
  8
0
  6
Continuous
 62
     7
370
    25
100
AcDbLine
 10
-124.2578380311
 20
389.002475281
 30
0.0
 11
-128.2578380311
 21
389.002475281
 31
0.0
  0
LINE
  5
197
330
1F
100
AcDbEntity
  8
0
  6
Continuous
 62
     7
370
    25
100
AcDbLine
 10
-128.2578380311
 20
385.8175201925
 30
0.0
 11
-128.2578380311
 21
389.002475281
 31
0.0
  0
LINE
  5
198
330
1F
100
AcDbEntity
  8
0
  6
Continuous
 62
     7
370
    25
100
AcDbLine
 10
-127.0078380311
 20
387.002913914
 30
0.0
 11
-125.5078380311
 21
387.002913914
 31
0.0
  0
ARC
  5
199
330
1F
100
AcDbEntity
  8
0
  6
Continuous
 62
     7
370
    25
100
AcDbCircle
 10
-125.507754473
 20
387.5028042557
 30
0.0
 40
0.4998903487209552
100
AcDbArc
 50
269.9904228381
 51
90.0095771619
  0
LINE
  5
19A
330
1F
100
AcDbEntity
  8
0
  6
Continuous
 62
     7
370
    25
100
AcDbLine
 10
-125.5078380311
 20
388.0026945975
 30
0.0
 11
-127.0078380311
 21
388.0026945975
 31
0.0
  0
ARC
  5
19B
330
1F
100
AcDbEntity
  8
0
  6
Continuous
 62
     7
370
    25
100
AcDbCircle
 10
-127.0079215893
 20
387.5028042557
 30
0.0
 40
0.4998903487209551
100
AcDbArc
 50
89.9904228381
 51
270.0095771619
  0
LINE
  5
19C
330
1F
100
AcDbEntity
  8
0
  6
Continuous
 62
     7
370
    25
100
AcDbLine
 10
-124.2578380311
 20
385.8175201925
 30
0.0
 11
-124.2578380311
 21
389.002475281
 31
0.0
  0
ARC
  5
19D
330
1F
100
AcDbEntity
  8
0
  6
Continuous
 62
     7
370
    25
100
AcDbCircle
 10
-127.0078978
 20
387.4943773994
 30
0.0
 40
0.4999402336846546
100
AcDbArc
 50
89.9931501807
 51
179.99428253
  0
ARC
  5
19E
330
1F
100
AcDbEntity
  8
0
  6
Continuous
 62
     7
370
    25
100
AcDbCircle
 10
-125.5077782623
 20
387.4943773994
 30
0.0
 40
0.4999402336852964
100
AcDbArc
 50
0.0057174701
 51
90.0068498192
  0
LINE
  5
19F
330
1F
100
AcDbEntity
  8
0
  6
Continuous
 62
     7
370
    25
100
AcDbLine
 10
-125.5078380311
 20
387.9943176295
 30
0.0
 11
-127.0078380311
 21
387.9943176295
 31
0.0
  0
LINE
  5
1A0
330
1F
100
AcDbEntity
  8
0
  6
Continuous
 62
     7
370
    25
100
AcDbLine
 10
-215.1839673754
 20
403.9181558606
 30
0.0
 11
-215.2368654696
 21
404.2181558606
 31
0.0
  0
LINE
  5
1A1
330
1F
100
AcDbEntity
  8
0
  6
Continuous
 62
     7
370
    25
100
AcDbLine
 10
-216.5182562403
 20
410.9181558606
 30
0.0
 11
-216.5182562403
 21
404.2181558606
 31
0.0
  0
LINE
  5
1A2
330
1F
100
AcDbEntity
  8
0
  6
Continuous
 62
     7
370
    25
100
AcDbLine
 10
-141.1182562403
 20
410.9181558606
 30
0.0
 11
-216.5182562403
 21
410.9181558606
 31
0.0
  0
LINE
  5
1A3
330
1F
100
AcDbEntity
  8
0
  6
Continuous
 62
     7
370
    25
100
AcDbLine
 10
-141.1182562403
 20
377.9181558606
 30
0.0
 11
-141.1182562403
 21
410.9181558606
 31
0.0
  0
LINE
  5
1A4
330
1F
100
AcDbEntity
  8
0
  6
Continuous
 62
     7
370
    25
100
AcDbLine
 10
-166.1182562403
 20
377.9181558606
 30
0.0
 11
-141.1182562403
 21
377.9181558606
 31
0.0
  0
LINE
  5
1A5
330
1F
100
AcDbEntity
  8
0
  6
Continuous
 62
     7
370
    25
100
AcDbLine
 10
-166.1182562403
 20
403.9181558606
 30
0.0
 11
-166.1182562403
 21
377.9181558606
 31
0.0
  0
LINE
  5
1A6
330
1F
100
AcDbEntity
  8
0
  6
Continuous
 62
     7
370
    25
100
AcDbLine
 10
-166.1182562403
 20
403.9181558606
 30
0.0
 11
-165.9982562403
 21
403.9181558606
 31
0.0
  0
LINE
  5
1A7
330
1F
100
AcDbEntity
  8
0
  6
Continuous
 62
     7
370
    25
100
AcDbLine
 10
-165.9982562403
 20
403.9181558606
 30
0.0
 11
-165.9982562403
 21
404.3381558606
 31
0.0
  0
ARC
  5
1A8
330
1F
100
AcDbEntity
  8
0
  6
Continuous
 62
     7
370
    25
100
AcDbCircle
 10
-166.0582562403
 20
404.3381558606
 30
0.0
 40
0.0600000000000023
100
AcDbArc
 50
0.0
 51
180.0
  0
LINE
  5
1A9
330
1F
100
AcDbEntity
  8
0
  6
Continuous
 62
     7
370
    25
100
AcDbLine
 10
-166.1182562403
 20
404.3381558606
 30
0.0
 11
-166.1182562403
 21
404.2181558606
 31
0.0
  0
LINE
  5
1AA
330
1F
100
AcDbEntity
  8
0
  6
Continuous
 62
     7
370
    25
100
AcDbLine
 10
-216.5182562403
 20
404.2181558606
 30
0.0
 11
-207.0182562403
 21
404.2181558606
 31
0.0
  0
LINE
  5
1AB
330
1F
100
AcDbEntity
  8
0
  6
Continuous
 62
     7
370
    25
100
AcDbLine
 10
-207.0182562403
 20
403.5181558606
 30
0.0
 11
-166.1182562403
 21
403.5181558606
 31
0.0
  0
LINE
  5
1AC
330
1F
100
AcDbEntity
  8
0
  6
Continuous
 62
     7
370
    25
100
AcDbLine
 10
-166.1182562403
 20
404.2181558606
 30
0.0
 11
-166.1182562403
 21
403.9181558606
 31
0.0
  0
LINE
  5
1AD
330
1F
100
AcDbEntity
  8
0
  6
Continuous
 62
     7
370
    25
100
AcDbLine
 10
-207.0182562403
 20
403.9181558606
 30
0.0
 11
-207.0182562403
 21
404.2181558606
 31
0.0
  0
ARC
  5
1AE
330
1F
100
AcDbEntity
  8
0
  6
Continuous
 62
     7
370
    25
100
AcDbCircle
 10
-216.2182562403
 20
404.2181558606
 30
0.0
 40
0.7000000000000455
100
AcDbArc
 50
180.0
 51
270.0
  0
ARC
  5
1AF
330
1F
100
AcDbEntity
  8
0
  6
Continuous
 62
     7
370
    25
100
AcDbCircle
 10
-216.2182562403
 20
404.2181558606
 30
0.0
 40
0.3000000000000114
100
AcDbArc
 50
180.0
 51
270.0
  0
LINE
  5
1B0
330
1F
100
AcDbEntity
  8
0
  6
Continuous
 62
     7
370
    25
100
AcDbLine
 10
-216.9182562403
 20
410.9181558606
 30
0.0
 11
-216.5182562403
 21
410.9181558606
 31
0.0
  0
LINE
  5
1B1
330
1F
100
AcDbEntity
  8
0
  6
Continuous
 62
     7
370
    25
100
AcDbLine
 10
-216.9182562403
 20
404.2181558606
 30
0.0
 11
-216.9182562403
 21
410.9181558606
 31
0.0
  0
LINE
  5
1B2
330
1F
100
AcDbEntity
  8
0
  6
Continuous
 62
     7
370
    25
100
AcDbLine
 10
-216.2182562403
 20
403.5181558606
 30
0.0
 11
-207.0182562403
 21
403.5181558606
 31
0.0
  0
LINE
  5
1B3
330
1F
100
AcDbEntity
  8
0
  6
Continuous
 62
     7
370
    25
100
AcDbLine
 10
-216.2182562403
 20
403.9181558606
 30
0.0
 11
-207.0182562403
 21
403.9181558606
 31
0.0
  0
LINE
  5
1B4
330
1F
100
AcDbEntity
  8
0
  6
Continuous
 62
     7
370
    25
100
AcDbLine
 10
-207.0182562403
 20
403.5181558606
 30
0.0
 11
-207.0182562403
 21
403.9181558606
 31
0.0
  0
LINE
  5
1B5
330
1F
100
AcDbEntity
  8
0
  6
Continuous
 62
     7
370
    25
100
AcDbLine
 10
-216.2182562403
 20
311.5181558606
 30
0.0
 11
-96.2182562403
 21
311.5181558606
 31
0.0
  0
LINE
  5
1B6
330
1F
100
AcDbEntity
  8
0
  6
Continuous
 62
     7
370
    25
100
AcDbLine
 10
-96.2182562403
 20
383.5181558606
 30
0.0
 11
-96.2182562403
 21
311.5181558606
 31
0.0
  0
LINE
  5
1B7
330
1F
100
AcDbEntity
  8
0
  6
Continuous
 62
     7
370
    25
100
AcDbLine
 10
-216.2182562403
 20
403.5181558606
 30
0.0
 11
-216.2182562403
 21
311.5181558606
 31
0.0
  0
LINE
  5
1B8
330
1F
100
AcDbEntity
  8
0
  6
Continuous
 62
     7
370
    25
100
AcDbLine
 10
-141.1182562403
 20
383.5181558606
 30
0.0
 11
-96.2182562403
 21
383.5181558606
 31
0.0
  0
LINE
  5
1B9
330
1F
100
AcDbEntity
  8
0
  6
PHANTOM
 62
     1
370
    18
100
AcDbLine
 10
-124.2578380311
 20
383.806599878
 30
0.0
 11
-128.2578380311
 21
383.806599878
 31
0.0
  0
LINE
  5
1BA
330
1F
100
AcDbEntity
  8
0
  6
PHANTOM
 62
     1
370
    18
100
AcDbLine
 10
-124.2578380311
 20
384.3247513343
 30
0.0
 11
-128.2578380311
 21
384.3247513343
 31
0.0
  0
LINE
  5
1BB
330
1F
100
AcDbEntity
  8
0
  6
PHANTOM
 62
     1
370
    18
100
AcDbLine
 10
-124.2578380311
 20
385.5954552827
 30
0.0
 11
-128.2578380311
 21
385.5954552827
 31
0.0
  0
LINE
  5
1BC
330
1F
100
AcDbEntity
  8
0
  6
PHANTOM
 62
     1
370
    18
100
AcDbLine
 10
-124.2578380311
 20
385.8175201925
 30
0.0
 11
-128.2578380311
 21
385.8175201925
 31
0.0
  0
LINE
  5
1BD
330
1F
100
AcDbEntity
  8
0
  6
PHANTOM
 62
     1
370
    18
100
AcDbLine
 10
-127.0078380311
 20
387.9943176295
 30
0.0
 11
-127.0078380311
 21
388.0026945975
 31
0.0
  0
LINE
  5
1BE
330
1F
100
AcDbEntity
  8
0
  6
PHANTOM
 62
     1
370
    18
100
AcDbLine
 10
-125.5078380311
 20
387.9943176295
 30
0.0
 11
-125.5078380311
 21
388.0026945975
 31
0.0
  0
LINE
  5
1BF
330
1F
100
AcDbEntity
  8
0
  6
PHANTOM
 62
     1
370
    18
100
AcDbLine
 10
-207.0182562403
 20
404.2181558606
 30
0.0
 11
-166.1182562403
 21
404.2181558606
 31
0.0
  0
LINE
  5
1C0
330
1F
100
AcDbEntity
  8
0
  6
PHANTOM
 62
     1
370
    18
100
AcDbLine
 10
-216.2182562403
 20
403.9181558606
 30
0.0
 11
-216.2182562403
 21
403.5181558606
 31
0.0
  0
LINE
  5
1C1
330
1F
100
AcDbEntity
  8
0
  6
PHANTOM
 62
     1
370
    18
100
AcDbLine
 10
-216.5182562403
 20
404.2181558606
 30
0.0
 11
-216.9182562403
 21
404.2181558606
 31
0.0
  0
LINE
  5
1C2
330
1F
100
AcDbEntity
  8
0
  6
Continuous
 62
     7
370
    25
100
AcDbLine
 10
538.6632694403
 20
85.2755935999
 30
0.0
 11
538.6632694403
 21
84.9755935999
 31
0.0
  0
LINE
  5
1C3
330
1F
100
AcDbEntity
  8
0
  6
Continuous
 62
     7
370
    25
100
AcDbLine
 10
545.6632694403
 20
85.2755935999
 30
0.0
 11
545.6632694403
 21
84.9755935999
 31
0.0
  0
LINE
  5
1C4
330
1F
100
AcDbEntity
  8
0
  6
Continuous
 62
     7
370
    25
100
AcDbLine
 10
538.6632694403
 20
-63.4244064001
 30
0.0
 11
538.6632694403
 21
-63.7244064001
 31
0.0
  0
LINE
  5
1C5
330
1F
100
AcDbEntity
  8
0
  6
Continuous
 62
     7
370
    25
100
AcDbLine
 10
545.6632694403
 20
-63.4244064001
 30
0.0
 11
545.6632694403
 21
-63.7244064001
 31
0.0
  0
LINE
  5
1C6
330
1F
100
AcDbEntity
  8
0
  6
Continuous
 62
     7
370
    25
100
AcDbLine
 10
521.1632694403
 20
85.2755935999
 30
0.0
 11
521.1632694403
 21
85.6755935999
 31
0.0
  0
LINE
  5
1C7
330
1F
100
AcDbEntity
  8
0
  6
Continuous
 62
     7
370
    25
100
AcDbLine
 10
546.7632694403
 20
85.6755935999
 30
0.0
 11
521.1632694403
 21
85.6755935999
 31
0.0
  0
LINE
  5
1C8
330
1F
100
AcDbEntity
  8
0
  6
Continuous
 62
     7
370
    25
100
AcDbLine
 10
546.7632694403
 20
85.2755935999
 30
0.0
 11
521.1632694403
 21
85.2755935999
 31
0.0
  0
LINE
  5
1C9
330
1F
100
AcDbEntity
  8
0
  6
Continuous
 62
     7
370
    25
100
AcDbLine
 10
521.1632694403
 20
-63.7244064001
 30
0.0
 11
521.1632694403
 21
-64.1244064001
 31
0.0
  0
LINE
  5
1CA
330
1F
100
AcDbEntity
  8
0
  6
Continuous
 62
     7
370
    25
100
AcDbLine
 10
546.7632694403
 20
-64.1244064001
 30
0.0
 11
521.1632694403
 21
-64.1244064001
 31
0.0
  0
LINE
  5
1CB
330
1F
100
AcDbEntity
  8
0
  6
Continuous
 62
     7
370
    25
100
AcDbLine
 10
546.7632694403
 20
-63.7244064001
 30
0.0
 11
521.1632694403
 21
-63.7244064001
 31
0.0
  0
LINE
  5
1CC
330
1F
100
AcDbEntity
  8
0
  6
Continuous
 62
     7
370
    25
100
AcDbLine
 10
546.7632694403
 20
-64.1244064001
 30
0.0
 11
546.7632694403
 21
85.6755935999
 31
0.0
  0
LINE
  5
1CD
330
1F
100
AcDbEntity
  8
0
  6
Continuous
 62
     7
370
    25
100
AcDbLine
 10
547.4632694403
 20
-64.1244064001
 30
0.0
 11
546.7632694403
 21
-64.1244064001
 31
0.0
  0
LINE
  5
1CE
330
1F
100
AcDbEntity
  8
0
  6
Continuous
 62
     7
370
    25
100
AcDbLine
 10
546.7632694403
 20
85.6755935999
 30
0.0
 11
547.4632694403
 21
85.6755935999
 31
0.0
  0
LINE
  5
1CF
330
1F
100
AcDbEntity
  8
0
  6
Continuous
 62
     7
370
    25
100
AcDbLine
 10
554.1632694403
 20
-64.1244064001
 30
0.0
 11
554.1632694403
 21
85.6755935999
 31
0.0
  0
LINE
  5
1D0
330
1F
100
AcDbEntity
  8
0
  6
Continuous
 62
     7
370
    25
100
AcDbLine
 10
554.1632694403
 20
85.6755935999
 30
0.0
 11
547.4632694403
 21
85.6755935999
 31
0.0
  0
LINE
  5
1D1
330
1F
100
AcDbEntity
  8
0
  6
Continuous
 62
     7
370
    25
100
AcDbLine
 10
547.4632694403
 20
-64.1244064001
 30
0.0
 11
554.1632694403
 21
-64.1244064001
 31
0.0
  0
LINE
  5
1D2
330
1F
100
AcDbEntity
  8
0
  6
Continuous
 62
     7
370
    25
100
AcDbLine
 10
546.7632694403
 20
84.9755935999
 30
0.0
 11
546.7632694403
 21
-63.4244064001
 31
0.0
  0
LINE
  5
1D3
330
1F
100
AcDbEntity
  8
0
  6
Continuous
 62
     7
370
    25
100
AcDbLine
 10
546.7632694403
 20
84.9755935999
 30
0.0
 11
454.7632694403
 21
84.9755935999
 31
0.0
  0
LINE
  5
1D4
330
1F
100
AcDbEntity
  8
0
  6
Continuous
 62
     7
370
    25
100
AcDbLine
 10
454.7632694403
 20
84.9755935999
 30
0.0
 11
454.7632694403
 21
-63.4244064001
 31
0.0
  0
LINE
  5
1D5
330
1F
100
AcDbEntity
  8
0
  6
Continuous
 62
     7
370
    25
100
AcDbLine
 10
546.7632694403
 20
-63.4244064001
 30
0.0
 11
454.7632694403
 21
-63.4244064001
 31
0.0
  0
LINE
  5
1D6
330
1F
100
AcDbEntity
  8
0
  6
PHANTOM
 62
     1
370
    18
100
AcDbLine
 10
547.4632694403
 20
-64.1244064001
 30
0.0
 11
547.4632694403
 21
85.6755935999
 31
0.0
  0
LINE
  5
1D7
330
1F
100
AcDbEntity
  8
0
  6
Continuous
 62
     7
370
    25
100
AcDbLine
 10
-153.2996470111
 20
280.2619826822
 30
0.0
 11
-152.1182562403
 21
286.9619826822
 31
0.0
  0
LINE
  5
1D8
330
1F
100
AcDbEntity
  8
0
  6
Continuous
 62
     7
370
    25
100
AcDbLine
 10
-214.9368654696
 20
280.2619826822
 30
0.0
 11
-153.2996470111
 21
280.2619826822
 31
0.0
  0
LINE
  5
1D9
330
1F
100
AcDbEntity
  8
0
  6
Continuous
 62
     7
370
    25
100
AcDbLine
 10
-216.1182562403
 20
286.9619826822
 30
0.0
 11
-214.9368654696
 21
280.2619826822
 31
0.0
  0
LINE
  5
1DA
330
1F
100
AcDbEntity
  8
0
  6
Continuous
 62
     7
370
    25
100
AcDbLine
 10
-216.1182562403
 20
286.9619826822
 30
0.0
 11
-152.1182562403
 21
286.9619826822
 31
0.0
  0
LINE
  5
1DB
330
1F
100
AcDbEntity
  8
0
  6
Continuous
 62
     7
370
    25
100
AcDbLine
 10
-216.1136282568
 20
286.9619826822
 30
0.0
 11
-214.932237486
 21
280.2619826822
 31
0.0
  0
LINE
  5
1DC
330
1F
100
AcDbEntity
  8
0
  6
Continuous
 62
     7
370
    25
100
AcDbLine
 10
-209.1839673754
 20
279.9619826822
 30
0.0
 11
-209.1839673754
 21
280.2619826822
 31
0.0
  0
LINE
  5
1DD
330
1F
100
AcDbEntity
  8
0
  6
Continuous
 62
     7
370
    25
100
AcDbLine
 10
-216.4182562403
 20
286.9619826822
 30
0.0
 11
-215.1839673754
 21
279.9619826822
 31
0.0
  0
LINE
  5
1DE
330
1F
100
AcDbEntity
  8
0
  6
Continuous
 62
     7
370
    25
100
AcDbLine
 10
-215.1839673754
 20
279.9619826822
 30
0.0
 11
-209.1839673754
 21
279.9619826822
 31
0.0
  0
LINE
  5
1DF
330
1F
100
AcDbEntity
  8
0
  6
Continuous
 62
     7
370
    25
100
AcDbLine
 10
-214.932237486
 20
280.2619826822
 30
0.0
 11
-209.1839673754
 21
280.2619826822
 31
0.0
  0
LINE
  5
1E0
330
1F
100
AcDbEntity
  8
0
  6
Continuous
 62
     7
370
    25
100
AcDbLine
 10
-216.4182562403
 20
286.9619826822
 30
0.0
 11
-216.1136282568
 21
286.9619826822
 31
0.0
  0
LINE
  5
1E1
330
1F
100
AcDbEntity
  8
0
  6
Continuous
 62
     7
370
    25
100
AcDbLine
 10
-153.0525451053
 20
279.9619826822
 30
0.0
 11
-151.8182562403
 21
286.9619826822
 31
0.0
  0
LINE
  5
1E2
330
1F
100
AcDbEntity
  8
0
  6
Continuous
 62
     7
370
    25
100
AcDbLine
 10
-159.0525451053
 20
280.2619826822
 30
0.0
 11
-159.0525451053
 21
279.9619826822
 31
0.0
  0
LINE
  5
1E3
330
1F
100
AcDbEntity
  8
0
  6
Continuous
 62
     7
370
    25
100
AcDbLine
 10
-153.3042749946
 20
280.2619826822
 30
0.0
 11
-152.1228842239
 21
286.9619826822
 31
0.0
  0
LINE
  5
1E4
330
1F
100
AcDbEntity
  8
0
  6
Continuous
 62
     7
370
    25
100
AcDbLine
 10
-159.0525451053
 20
279.9619826822
 30
0.0
 11
-153.0525451053
 21
279.9619826822
 31
0.0
  0
LINE
  5
1E5
330
1F
100
AcDbEntity
  8
0
  6
Continuous
 62
     7
370
    25
100
AcDbLine
 10
-159.0525451053
 20
280.2619826822
 30
0.0
 11
-153.3042749946
 21
280.2619826822
 31
0.0
  0
LINE
  5
1E6
330
1F
100
AcDbEntity
  8
0
  6
Continuous
 62
     7
370
    25
100
AcDbLine
 10
-152.1228842239
 20
286.9619826822
 30
0.0
 11
-151.8182562403
 21
286.9619826822
 31
0.0
  0
LINE
  5
1E7
330
1F
100
AcDbEntity
  8
0
  6
Continuous
 62
     7
370
    25
100
AcDbLine
 10
-207.0182562403
 20
279.9619826822
 30
0.0
 11
-163.1182562403
 21
279.9619826822
 31
0.0
  0
LINE
  5
1E8
330
1F
100
AcDbEntity
  8
0
  6
Continuous
 62
     7
370
    25
100
AcDbLine
 10
-160.1182562403
 20
279.9619826822
 30
0.0
 11
-159.6182562403
 21
279.9619826822
 31
0.0
  0
LINE
  5
1E9
330
1F
100
AcDbEntity
  8
0
  6
Continuous
 62
     7
370
    25
100
AcDbLine
 10
-151.3182562403
 20
279.5619826822
 30
0.0
 11
-159.6182562403
 21
279.5619826822
 31
0.0
  0
LINE
  5
1EA
330
1F
100
AcDbEntity
  8
0
  6
Continuous
 62
     7
370
    25
100
AcDbLine
 10
-159.6182562403
 20
279.5619826822
 30
0.0
 11
-159.6182562403
 21
279.9619826822
 31
0.0
  0
LINE
  5
1EB
330
1F
100
AcDbEntity
  8
0
  6
Continuous
 62
     7
370
    25
100
AcDbLine
 10
-151.7182562403
 20
279.9619826822
 30
0.0
 11
-159.6182562403
 21
279.9619826822
 31
0.0
  0
LINE
  5
1EC
330
1F
100
AcDbEntity
  8
0
  6
Continuous
 62
     7
370
    25
100
AcDbLine
 10
-151.7182562403
 20
286.9619826822
 30
0.0
 11
-151.7182562403
 21
279.9619826822
 31
0.0
  0
LINE
  5
1ED
330
1F
100
AcDbEntity
  8
0
  6
Continuous
 62
     7
370
    25
100
AcDbLine
 10
-151.3182562403
 20
286.9619826822
 30
0.0
 11
-151.3182562403
 21
279.5619826822
 31
0.0
  0
LINE
  5
1EE
330
1F
100
AcDbEntity
  8
0
  6
Continuous
 62
     7
370
    25
100
AcDbLine
 10
-151.7182562403
 20
286.9619826822
 30
0.0
 11
-151.3182562403
 21
286.9619826822
 31
0.0
  0
ARC
  5
1EF
330
1F
100
AcDbEntity
  8
0
  6
Continuous
 62
     7
370
    25
100
AcDbCircle
 10
-160.1182562403
 20
279.4619826822
 30
0.0
 40
0.5
100
AcDbArc
 50
0.0
 51
90.0
  0
LINE
  5
1F0
330
1F
100
AcDbEntity
  8
0
  6
Continuous
 62
     7
370
    25
100
AcDbLine
 10
-159.6182562403
 20
272.4619826822
 30
0.0
 11
-159.6182562403
 21
279.4619826822
 31
0.0
  0
ARC
  5
1F1
330
1F
100
AcDbEntity
  8
0
  6
Continuous
 62
     7
370
    25
100
AcDbCircle
 10
-160.1182562403
 20
272.4619826822
 30
0.0
 40
0.5000000000000568
100
AcDbArc
 50
270.0
 51
0.0
  0
LINE
  5
1F2
330
1F
100
AcDbEntity
  8
0
  6
Continuous
 62
     7
370
    25
100
AcDbLine
 10
-163.1182562403
 20
271.9619826822
 30
0.0
 11
-160.1182562403
 21
271.9619826822
 31
0.0
  0
ARC
  5
1F3
330
1F
100
AcDbEntity
  8
0
  6
Continuous
 62
     7
370
    25
100
AcDbCircle
 10
-163.1182562403
 20
272.4619826822
 30
0.0
 40
0.5
100
AcDbArc
 50
180.0
 51
270.0
  0
LINE
  5
1F4
330
1F
100
AcDbEntity
  8
0
  6
Continuous
 62
     7
370
    25
100
AcDbLine
 10
-163.6182562403
 20
279.4619826822
 30
0.0
 11
-163.6182562403
 21
272.4619826822
 31
0.0
  0
ARC
  5
1F5
330
1F
100
AcDbEntity
  8
0
  6
Continuous
 62
     7
370
    25
100
AcDbCircle
 10
-163.1182562403
 20
279.4619826822
 30
0.0
 40
0.5
100
AcDbArc
 50
90.0
 51
180.0
  0
LINE
  5
1F6
330
1F
100
AcDbEntity
  8
0
  6
Continuous
 62
     7
370
    25
100
AcDbLine
 10
-160.1182562403
 20
279.9619826822
 30
0.0
 11
-163.1182562403
 21
279.9619826822
 31
0.0
  0
LINE
  5
1F7
330
1F
100
AcDbEntity
  8
0
  6
Continuous
 62
     7
370
    25
100
AcDbLine
 10
-160.1182562403
 20
272.4619826822
 30
0.0
 11
-160.1182562403
 21
279.4619826822
 31
0.0
  0
LINE
  5
1F8
330
1F
100
AcDbEntity
  8
0
  6
Continuous
 62
     7
370
    25
100
AcDbLine
 10
-160.1182562403
 20
279.4619826822
 30
0.0
 11
-163.1182562403
 21
279.4619826822
 31
0.0
  0
LINE
  5
1F9
330
1F
100
AcDbEntity
  8
0
  6
Continuous
 62
     7
370
    25
100
AcDbLine
 10
-163.1182562403
 20
279.4619826822
 30
0.0
 11
-163.1182562403
 21
272.4619826822
 31
0.0
  0
LINE
  5
1FA
330
1F
100
AcDbEntity
  8
0
  6
Continuous
 62
     7
370
    25
100
AcDbLine
 10
-163.1182562403
 20
272.4619826822
 30
0.0
 11
-160.1182562403
 21
272.4619826822
 31
0.0
  0
LINE
  5
1FB
330
1F
100
AcDbEntity
  8
0
  6
Continuous
 62
     7
370
    25
100
AcDbLine
 10
-216.2182562403
 20
279.5619826822
 30
0.0
 11
-207.0182562403
 21
279.5619826822
 31
0.0
  0
ARC
  5
1FC
330
1F
100
AcDbEntity
  8
0
  6
Continuous
 62
     7
370
    25
100
AcDbCircle
 10
-216.2182562403
 20
280.2619826822
 30
0.0
 40
0.7000000000000455
100
AcDbArc
 50
180.0
 51
270.0
  0
LINE
  5
1FD
330
1F
100
AcDbEntity
  8
0
  6
Continuous
 62
     7
370
    25
100
AcDbLine
 10
-216.5182562403
 20
286.9619826822
 30
0.0
 11
-216.9182562403
 21
286.9619826822
 31
0.0
  0
LINE
  5
1FE
330
1F
100
AcDbEntity
  8
0
  6
Continuous
 62
     7
370
    25
100
AcDbLine
 10
-216.2182562403
 20
279.9619826822
 30
0.0
 11
-207.0182562403
 21
279.9619826822
 31
0.0
  0
LINE
  5
1FF
330
1F
100
AcDbEntity
  8
0
  6
Continuous
 62
     7
370
    25
100
AcDbLine
 10
-207.0182562403
 20
279.9619826822
 30
0.0
 11
-207.0182562403
 21
279.5619826822
 31
0.0
  0
LINE
  5
200
330
1F
100
AcDbEntity
  8
0
  6
Continuous
 62
     7
370
    25
100
AcDbLine
 10
-216.9182562403
 20
286.9619826822
 30
0.0
 11
-216.9182562403
 21
280.2619826822
 31
0.0
  0
ARC
  5
201
330
1F
100
AcDbEntity
  8
0
  6
Continuous
 62
     7
370
    25
100
AcDbCircle
 10
-216.2182562403
 20
280.2619826822
 30
0.0
 40
0.3000000000000682
100
AcDbArc
 50
180.0
 51
270.0
  0
LINE
  5
202
330
1F
100
AcDbEntity
  8
0
  6
Continuous
 62
     7
370
    25
100
AcDbLine
 10
-216.5182562403
 20
286.9619826822
 30
0.0
 11
-216.5182562403
 21
280.2619826822
 31
0.0
  0
ARC
  5
203
330
1F
100
AcDbEntity
  8
0
  6
Continuous
 62
     7
370
    25
100
AcDbCircle
 10
-207.0182562403
 20
279.2619826822
 30
0.0
 40
0.6999999999999886
100
AcDbArc
 50
0.0
 51
90.0
  0
ARC
  5
204
330
1F
100
AcDbEntity
  8
0
  6
Continuous
 62
     7
370
    25
100
AcDbCircle
 10
-207.0182562403
 20
279.2619826822
 30
0.0
 40
0.2999999999999829
100
AcDbArc
 50
0.0
 51
90.0
  0
LINE
  5
205
330
1F
100
AcDbEntity
  8
0
  6
Continuous
 62
     7
370
    25
100
AcDbLine
 10
-206.3182562403
 20
266.7892373603
 30
0.0
 11
-206.7182562403
 21
266.7892373603
 31
0.0
  0
LINE
  5
206
330
1F
100
AcDbEntity
  8
0
  6
Continuous
 62
     7
370
    25
100
AcDbLine
 10
-206.7182562403
 20
266.7892373603
 30
0.0
 11
-206.7182562403
 21
279.2619826822
 31
0.0
  0
LINE
  5
207
330
1F
100
AcDbEntity
  8
0
  6
Continuous
 62
     7
370
    25
100
AcDbLine
 10
-206.3182562403
 20
266.7892373603
 30
0.0
 11
-206.3182562403
 21
279.2619826822
 31
0.0
  0
LINE
  5
208
330
1F
100
AcDbEntity
  8
0
  6
Continuous
 62
     7
370
    25
100
AcDbLine
 10
-214.2182562403
 20
222.5619826822
 30
0.0
 11
-214.2182562403
 21
187.5619826822
 31
0.0
  0
LINE
  5
209
330
1F
100
AcDbEntity
  8
0
  6
Continuous
 62
     7
370
    25
100
AcDbLine
 10
-214.2182562403
 20
187.5619826822
 30
0.0
 11
-216.2182562403
 21
187.5619826822
 31
0.0
  0
LINE
  5
20A
330
1F
100
AcDbEntity
  8
0
  6
Continuous
 62
     7
370
    25
100
AcDbLine
 10
-216.2182562403
 20
279.5619826822
 30
0.0
 11
-216.2182562403
 21
187.5619826822
 31
0.0
  0
LINE
  5
20B
330
1F
100
AcDbEntity
  8
0
  6
Continuous
 62
     7
370
    25
100
AcDbLine
 10
-207.2182562403
 20
279.5619826822
 30
0.0
 11
-216.2182562403
 21
279.5619826822
 31
0.0
  0
LINE
  5
20C
330
1F
100
AcDbEntity
  8
0
  6
Continuous
 62
     7
370
    25
100
AcDbLine
 10
-208.4122360332
 20
222.5619826822
 30
0.0
 11
-214.2182562403
 21
222.5619826822
 31
0.0
  0
LINE
  5
20D
330
1F
100
AcDbEntity
  8
0
  6
Continuous
 62
     7
370
    25
100
AcDbLine
 10
-208.4122360332
 20
222.5619826822
 30
0.0
 11
-207.2182562403
 21
279.5619826822
 31
0.0
  0
LINE
  5
20E
330
1F
100
AcDbEntity
  8
0
  6
Continuous
 62
     7
370
    25
100
AcDbLine
 10
-98.2182562403
 20
187.5619826822
 30
0.0
 11
-98.2182562403
 21
222.5619826822
 31
0.0
  0
LINE
  5
20F
330
1F
100
AcDbEntity
  8
0
  6
Continuous
 62
     7
370
    25
100
AcDbLine
 10
-96.2182562403
 20
259.5619826822
 30
0.0
 11
-104.7993159621
 21
259.5619826822
 31
0.0
  0
LINE
  5
210
330
1F
100
AcDbEntity
  8
0
  6
Continuous
 62
     7
370
    25
100
AcDbLine
 10
-96.2182562403
 20
187.5619826822
 30
0.0
 11
-98.2182562403
 21
187.5619826822
 31
0.0
  0
LINE
  5
211
330
1F
100
AcDbEntity
  8
0
  6
Continuous
 62
     7
370
    25
100
AcDbLine
 10
-96.2182562403
 20
187.5619826822
 30
0.0
 11
-96.2182562403
 21
259.5619826822
 31
0.0
  0
LINE
  5
212
330
1F
100
AcDbEntity
  8
0
  6
Continuous
 62
     7
370
    25
100
AcDbLine
 10
-104.7993159621
 20
259.5619826822
 30
0.0
 11
-104.0242764475
 21
222.5619826822
 31
0.0
  0
LINE
  5
213
330
1F
100
AcDbEntity
  8
0
  6
Continuous
 62
     7
370
    25
100
AcDbLine
 10
-98.2182562403
 20
222.5619826822
 30
0.0
 11
-104.0242764475
 21
222.5619826822
 31
0.0
  0
LINE
  5
214
330
1F
100
AcDbEntity
  8
0
  6
Continuous
 62
     7
370
    25
100
AcDbLine
 10
-98.2182562403
 20
187.5619826822
 30
0.0
 11
-103.2911309606
 21
187.5619826822
 31
0.0
  0
LINE
  5
215
330
1F
100
AcDbEntity
  8
0
  6
Continuous
 62
     7
370
    25
100
AcDbLine
 10
-104.0242764475
 20
222.5619826822
 30
0.0
 11
-103.2911309606
 21
187.5619826822
 31
0.0
  0
LINE
  5
216
330
1F
100
AcDbEntity
  8
0
  6
Continuous
 62
     7
370
    25
100
AcDbLine
 10
-209.14538152
 20
187.5619826822
 30
0.0
 11
-214.2182562403
 21
187.5619826822
 31
0.0
  0
LINE
  5
217
330
1F
100
AcDbEntity
  8
0
  6
Continuous
 62
     7
370
    25
100
AcDbLine
 10
-209.14538152
 20
187.5619826822
 30
0.0
 11
-208.4122360332
 21
222.5619826822
 31
0.0
  0
LINE
  5
218
330
1F
100
AcDbEntity
  8
0
  6
Continuous
 62
     7
370
    25
100
AcDbLine
 10
-131.2182562403
 20
222.5619826822
 30
0.0
 11
-121.2182562403
 21
187.5619826822
 31
0.0
  0
LINE
  5
219
330
1F
100
AcDbEntity
  8
0
  6
Continuous
 62
     7
370
    25
100
AcDbLine
 10
-181.2182562403
 20
222.5619826822
 30
0.0
 11
-131.2182562403
 21
222.5619826822
 31
0.0
  0
LINE
  5
21A
330
1F
100
AcDbEntity
  8
0
  6
Continuous
 62
     7
370
    25
100
AcDbLine
 10
-191.2182562403
 20
187.5619826822
 30
0.0
 11
-181.2182562403
 21
222.5619826822
 31
0.0
  0
CIRCLE
  5
21B
330
1F
100
AcDbEntity
  8
0
  6
Continuous
 62
     7
370
    25
100
AcDbCircle
 10
-126.2182562403
 20
254.5619826822
 30
0.0
 40
0.4000000000000057
  0
CIRCLE
  5
21C
330
1F
100
AcDbEntity
  8
0
  6
Continuous
 62
     7
370
    25
100
AcDbCircle
 10
-175.0182562403
 20
274.5619826822
 30
0.0
 40
0.5999999999999659
  0
LINE
  5
21D
330
1F
100
AcDbEntity
  8
0
  6
Continuous
 62
     7
370
    25
100
AcDbLine
 10
-165.2182562403
 20
279.5619826822
 30
0.0
 11
-165.2182562403
 21
259.5619826822
 31
0.0
  0
LINE
  5
21E
330
1F
100
AcDbEntity
  8
0
  6
Continuous
 62
     7
370
    25
100
AcDbLine
 10
-165.2182562403
 20
259.5619826822
 30
0.0
 11
-128.2578380311
 21
259.5619826822
 31
0.0
  0
LINE
  5
21F
330
1F
100
AcDbEntity
  8
0
  6
Continuous
 62
     7
370
    25
100
AcDbLine
 10
-124.2578380311
 20
259.5619826822
 30
0.0
 11
-104.7993159621
 21
259.5619826822
 31
0.0
  0
LINE
  5
220
330
1F
100
AcDbEntity
  8
0
  6
Continuous
 62
     7
370
    25
100
AcDbLine
 10
-191.2182562403
 20
187.5619826822
 30
0.0
 11
-209.14538152
 21
187.5619826822
 31
0.0
  0
LINE
  5
221
330
1F
100
AcDbEntity
  8
0
  6
Continuous
 62
     7
370
    25
100
AcDbLine
 10
-103.2911309606
 20
187.5619826822
 30
0.0
 11
-121.2182562403
 21
187.5619826822
 31
0.0
  0
LINE
  5
222
330
1F
100
AcDbEntity
  8
0
  6
Continuous
 62
     7
370
    25
100
AcDbLine
 10
-165.2182562403
 20
279.5619826822
 30
0.0
 11
-172.4182562403
 21
279.5619826822
 31
0.0
  0
LINE
  5
223
330
1F
100
AcDbEntity
  8
0
  6
Continuous
 62
     7
370
    25
100
AcDbLine
 10
-177.4182562403
 20
279.5619826822
 30
0.0
 11
-206.3858007083
 21
279.5619826822
 31
0.0
  0
LINE
  5
224
330
1F
100
AcDbEntity
  8
0
  6
Continuous
 62
     7
370
    25
100
AcDbLine
 10
-121.2182562403
 20
187.5619826822
 30
0.0
 11
-191.2182562403
 21
187.5619826822
 31
0.0
  0
LINE
  5
225
330
1F
100
AcDbEntity
  8
0
  6
Continuous
 62
     7
370
    25
100
AcDbLine
 10
-128.2578380311
 20
261.8529700461
 30
0.0
 11
-128.2578380311
 21
265.0379251345
 31
0.0
  0
LINE
  5
226
330
1F
100
AcDbEntity
  8
0
  6
Continuous
 62
     7
370
    25
100
AcDbLine
 10
-128.2578380311
 20
265.0379251345
 30
0.0
 11
-124.2578380311
 21
265.0379251345
 31
0.0
  0
LINE
  5
227
330
1F
100
AcDbEntity
  8
0
  6
Continuous
 62
     7
370
    25
100
AcDbLine
 10
-124.2578380311
 20
261.8529700461
 30
0.0
 11
-124.2578380311
 21
265.0379251345
 31
0.0
  0
ARC
  5
228
330
1F
100
AcDbEntity
  8
0
  6
Continuous
 62
     7
370
    25
100
AcDbCircle
 10
-127.0079215893
 20
263.5382541093
 30
0.0
 40
0.4998903487209551
100
AcDbArc
 50
89.9904228381
 51
270.0095771619
  0
LINE
  5
229
330
1F
100
AcDbEntity
  8
0
  6
Continuous
 62
     7
370
    25
100
AcDbLine
 10
-125.5078380311
 20
263.0383637676
 30
0.0
 11
-127.0078380311
 21
263.0383637676
 31
0.0
  0
ARC
  5
22A
330
1F
100
AcDbEntity
  8
0
  6
Continuous
 62
     7
370
    25
100
AcDbCircle
 10
-125.507754473
 20
263.5382541093
 30
0.0
 40
0.4998903487209552
100
AcDbArc
 50
269.9904228381
 51
90.0095771619
  0
LINE
  5
22B
330
1F
100
AcDbEntity
  8
0
  6
Continuous
 62
     7
370
    25
100
AcDbLine
 10
-127.0078380311
 20
264.0381444511
 30
0.0
 11
-125.5078380311
 21
264.0381444511
 31
0.0
  0
LINE
  5
22C
330
1F
100
AcDbEntity
  8
0
  6
Continuous
 62
     7
370
    25
100
AcDbLine
 10
-128.2578380311
 20
265.0463021025
 30
0.0
 11
-124.2578380311
 21
265.0463021025
 31
0.0
  0
LINE
  5
22D
330
1F
100
AcDbEntity
  8
0
  6
Continuous
 62
     7
370
    25
100
AcDbLine
 10
-128.2578380311
 20
265.0463021025
 30
0.0
 11
-128.2578380311
 21
265.0379251345
 31
0.0
  0
LINE
  5
22E
330
1F
100
AcDbEntity
  8
0
  6
Continuous
 62
     7
370
    25
100
AcDbLine
 10
-124.2578380311
 20
265.0463021025
 30
0.0
 11
-124.2578380311
 21
265.0379251345
 31
0.0
  0
ARC
  5
22F
330
1F
100
AcDbEntity
  8
0
  6
Continuous
 62
     7
370
    25
100
AcDbCircle
 10
-125.5077782623
 20
263.5466809657
 30
0.0
 40
0.4999402336858507
100
AcDbArc
 50
269.9931501809
 51
359.9942825298
  0
ARC
  5
230
330
1F
100
AcDbEntity
  8
0
  6
Continuous
 62
     7
370
    25
100
AcDbCircle
 10
-127.0078978
 20
263.5466809657
 30
0.0
 40
0.4999402336844011
100
AcDbArc
 50
180.00571747
 51
270.0068498193
  0
LINE
  5
231
330
1F
100
AcDbEntity
  8
0
  6
Continuous
 62
     7
370
    25
100
AcDbLine
 10
-125.5078380311
 20
263.0467407355
 30
0.0
 11
-127.0078380311
 21
263.0467407355
 31
0.0
  0
LINE
  5
232
330
1F
100
AcDbEntity
  8
0
  6
Continuous
 62
     7
370
    25
100
AcDbLine
 10
-128.2578380311
 20
261.3348185898
 30
0.0
 11
-128.2578380311
 21
261.8529700461
 31
0.0
  0
LINE
  5
233
330
1F
100
AcDbEntity
  8
0
  6
Continuous
 62
     7
370
    25
100
AcDbLine
 10
-124.2578380311
 20
261.3348185898
 30
0.0
 11
-124.2578380311
 21
261.8529700461
 31
0.0
  0
LINE
  5
234
330
1F
100
AcDbEntity
  8
0
  6
Continuous
 62
     7
370
    25
100
AcDbLine
 10
-124.2578380311
 20
260.0641146414
 30
0.0
 11
-124.2578380311
 21
261.3348185898
 31
0.0
  0
LINE
  5
235
330
1F
100
AcDbEntity
  8
0
  6
Continuous
 62
     7
370
    25
100
AcDbLine
 10
-128.2578380311
 20
260.0641146414
 30
0.0
 11
-128.2578380311
 21
261.3348185898
 31
0.0
  0
LINE
  5
236
330
1F
100
AcDbEntity
  8
0
  6
Continuous
 62
     7
370
    25
100
AcDbLine
 10
-124.2578380311
 20
259.8420497316
 30
0.0
 11
-124.2578380311
 21
260.0641146414
 31
0.0
  0
LINE
  5
237
330
1F
100
AcDbEntity
  8
0
  6
Continuous
 62
     7
370
    25
100
AcDbLine
 10
-128.2578380311
 20
259.8420497316
 30
0.0
 11
-128.2578380311
 21
260.0641146414
 31
0.0
  0
LINE
  5
238
330
1F
100
AcDbEntity
  8
0
  6
Continuous
 62
     7
370
    25
100
AcDbLine
 10
-128.2578380311
 20
252.4783848786
 30
0.0
 11
-124.2578380311
 21
252.4783848786
 31
0.0
  0
LINE
  5
239
330
1F
100
AcDbEntity
  8
0
  6
Continuous
 62
     7
370
    25
100
AcDbLine
 10
-128.2578380311
 20
252.4783848786
 30
0.0
 11
-128.2578380311
 21
259.8420497316
 31
0.0
  0
ARC
  5
23A
330
1F
100
AcDbEntity
  8
0
  6
Continuous
 62
     7
370
    25
100
AcDbCircle
 10
-126.2578380311
 20
255.2776872158
 30
0.0
 40
0.5000000069850322
100
AcDbArc
 50
0.0095771619
 51
179.9904228381
  0
LINE
  5
23B
330
1F
100
AcDbEntity
  8
0
  6
Continuous
 62
     7
370
    25
100
AcDbLine
 10
-126.7578380311
 20
253.7780997671
 30
0.0
 11
-126.7578380311
 21
255.2777707923
 31
0.0
  0
ARC
  5
23C
330
1F
100
AcDbEntity
  8
0
  6
Continuous
 62
     7
370
    25
100
AcDbCircle
 10
-126.2578380311
 20
253.7781833436
 30
0.0
 40
0.5000000069850322
100
AcDbArc
 50
180.0095771619
 51
359.9904228381
  0
LINE
  5
23D
330
1F
100
AcDbEntity
  8
0
  6
Continuous
 62
     7
370
    25
100
AcDbLine
 10
-125.7578380311
 20
255.2777707923
 30
0.0
 11
-125.7578380311
 21
253.7780997671
 31
0.0
  0
LINE
  5
23E
330
1F
100
AcDbEntity
  8
0
  6
Continuous
 62
     7
370
    25
100
AcDbLine
 10
-124.2578380311
 20
252.4783848786
 30
0.0
 11
-124.2578380311
 21
259.8420497316
 31
0.0
  0
ARC
  5
23F
330
1F
100
AcDbEntity
  8
0
  6
Continuous
 62
     7
370
    25
100
AcDbCircle
 10
-126.2578380311
 20
253.7865603115
 30
0.0
 40
0.5000000069850322
100
AcDbArc
 50
180.0095771619
 51
359.9904228381
  0
LINE
  5
240
330
1F
100
AcDbEntity
  8
0
  6
Continuous
 62
     7
370
    25
100
AcDbLine
 10
-163.7182562403
 20
271.9619826822
 30
0.0
 11
-163.1182562403
 21
271.9619826822
 31
0.0
  0
LINE
  5
241
330
1F
100
AcDbEntity
  8
0
  6
Continuous
 62
     7
370
    25
100
AcDbLine
 10
-160.1182562403
 20
271.9619826822
 30
0.0
 11
-159.5182562403
 21
271.9619826822
 31
0.0
  0
LINE
  5
242
330
1F
100
AcDbEntity
  8
0
  6
Continuous
 62
     7
370
    25
100
AcDbLine
 10
-164.2182562403
 20
271.4619826822
 30
0.0
 11
-164.2182562403
 21
278.4619826822
 31
0.0
  0
LINE
  5
243
330
1F
100
AcDbEntity
  8
0
  6
Continuous
 62
     7
370
    25
100
AcDbLine
 10
-164.2182562403
 20
278.4619826822
 30
0.0
 11
-163.7182562403
 21
278.4619826822
 31
0.0
  0
LINE
  5
244
330
1F
100
AcDbEntity
  8
0
  6
Continuous
 62
     7
370
    25
100
AcDbLine
 10
-163.7182562403
 20
278.4619826822
 30
0.0
 11
-163.7182562403
 21
271.9619826822
 31
0.0
  0
LINE
  5
245
330
1F
100
AcDbEntity
  8
0
  6
Continuous
 62
     7
370
    25
100
AcDbLine
 10
-159.0182562403
 20
278.4619826822
 30
0.0
 11
-159.0182562403
 21
271.4619826822
 31
0.0
  0
LINE
  5
246
330
1F
100
AcDbEntity
  8
0
  6
Continuous
 62
     7
370
    25
100
AcDbLine
 10
-159.5182562403
 20
271.9619826822
 30
0.0
 11
-159.5182562403
 21
278.4619826822
 31
0.0
  0
LINE
  5
247
330
1F
100
AcDbEntity
  8
0
  6
Continuous
 62
     7
370
    25
100
AcDbLine
 10
-159.5182562403
 20
278.4619826822
 30
0.0
 11
-159.0182562403
 21
278.4619826822
 31
0.0
  0
LINE
  5
248
330
1F
100
AcDbEntity
  8
0
  6
Continuous
 62
     7
370
    25
100
AcDbLine
 10
-159.0182562403
 20
271.4619826822
 30
0.0
 11
-164.2182562403
 21
271.4619826822
 31
0.0
  0
LINE
  5
249
330
1F
100
AcDbEntity
  8
0
  6
Continuous
 62
     7
370
    25
100
AcDbLine
 10
-172.4182562403
 20
279.2619826822
 30
0.0
 11
-172.4182562403
 21
279.9619826822
 31
0.0
  0
LINE
  5
24A
330
1F
100
AcDbEntity
  8
0
  6
Continuous
 62
     7
370
    25
100
AcDbLine
 10
-177.4182562403
 20
279.9619826822
 30
0.0
 11
-177.4182562403
 21
279.2619826822
 31
0.0
  0
LINE
  5
24B
330
1F
100
AcDbEntity
  8
0
  6
Continuous
 62
     7
370
    25
100
AcDbLine
 10
-173.7682562403
 20
274.9619826822
 30
0.0
 11
-173.7682562403
 21
269.9619826822
 31
0.0
  0
LINE
  5
24C
330
1F
100
AcDbEntity
  8
0
  6
Continuous
 62
     7
370
    25
100
AcDbLine
 10
-172.4182562403
 20
267.0619826822
 30
0.0
 11
-177.4182562403
 21
267.0619826822
 31
0.0
  0
LINE
  5
24D
330
1F
100
AcDbEntity
  8
0
  6
Continuous
 62
     7
370
    25
100
AcDbLine
 10
-177.4182562403
 20
267.0619826822
 30
0.0
 11
-177.4182562403
 21
279.2619826822
 31
0.0
  0
LINE
  5
24E
330
1F
100
AcDbEntity
  8
0
  6
Continuous
 62
     7
370
    25
100
AcDbLine
 10
-172.4182562403
 20
279.2619826822
 30
0.0
 11
-172.4182562403
 21
267.0619826822
 31
0.0
  0
ARC
  5
24F
330
1F
100
AcDbEntity
  8
0
  6
Continuous
 62
     7
370
    25
100
AcDbCircle
 10
-174.9182562403
 20
274.9619826822
 30
0.0
 40
1.150000000000006
100
AcDbArc
 50
0.0
 51
180.0
  0
ARC
  5
250
330
1F
100
AcDbEntity
  8
0
  6
Continuous
 62
     7
370
    25
100
AcDbCircle
 10
-174.9182562403
 20
269.9619826822
 30
0.0
 40
1.150000000000034
100
AcDbArc
 50
180.0
 51
0.0
  0
LINE
  5
251
330
1F
100
AcDbEntity
  8
0
  6
Continuous
 62
     7
370
    25
100
AcDbLine
 10
-176.0682562403
 20
269.9619826822
 30
0.0
 11
-176.0682562403
 21
274.9619826822
 31
0.0
  0
LINE
  5
252
330
1F
100
AcDbEntity
  8
0
  6
Continuous
 62
     7
370
    25
100
AcDbLine
 10
-166.1182562403
 20
279.5619826822
 30
0.0
 11
-166.1182562403
 21
279.9619826822
 31
0.0
  0
LINE
  5
253
330
1F
100
AcDbEntity
  8
0
  6
Continuous
 62
     7
370
    25
100
AcDbLine
 10
-141.1182562403
 20
286.9619826822
 30
0.0
 11
-151.3182562403
 21
286.9619826822
 31
0.0
  0
LINE
  5
254
330
1F
100
AcDbEntity
  8
0
  6
Continuous
 62
     7
370
    25
100
AcDbLine
 10
-151.7182562403
 20
286.9619826822
 30
0.0
 11
-151.8182562403
 21
286.9619826822
 31
0.0
  0
LINE
  5
255
330
1F
100
AcDbEntity
  8
0
  6
Continuous
 62
     7
370
    25
100
AcDbLine
 10
-216.4182562403
 20
286.9619826822
 30
0.0
 11
-216.5182562403
 21
286.9619826822
 31
0.0
  0
LINE
  5
256
330
1F
100
AcDbEntity
  8
0
  6
Continuous
 62
     7
370
    25
100
AcDbLine
 10
-141.1182562403
 20
259.5619826822
 30
0.0
 11
-141.1182562403
 21
286.9619826822
 31
0.0
  0
LINE
  5
257
330
1F
100
AcDbEntity
  8
0
  6
Continuous
 62
     7
370
    25
100
AcDbLine
 10
-216.5182562403
 20
280.2619826822
 30
0.0
 11
-215.2368654696
 21
280.2619826822
 31
0.0
  0
LINE
  5
258
330
1F
100
AcDbEntity
  8
0
  6
PHANTOM
 62
     1
370
    18
100
AcDbLine
 10
-206.7182562403
 20
279.2619826822
 30
0.0
 11
-206.3182562403
 21
279.2619826822
 31
0.0
  0
LINE
  5
259
330
1F
100
AcDbEntity
  8
0
  6
PHANTOM
 62
     1
370
    18
100
AcDbLine
 10
-128.2578380311
 20
261.8529700461
 30
0.0
 11
-124.2578380311
 21
261.8529700461
 31
0.0
  0
LINE
  5
25A
330
1F
100
AcDbEntity
  8
0
  6
PHANTOM
 62
     1
370
    18
100
AcDbLine
 10
-125.5078380311
 20
263.0383637676
 30
0.0
 11
-125.5078380311
 21
263.0467407355
 31
0.0
  0
LINE
  5
25B
330
1F
100
AcDbEntity
  8
0
  6
PHANTOM
 62
     1
370
    18
100
AcDbLine
 10
-127.0078380311
 20
263.0383637676
 30
0.0
 11
-127.0078380311
 21
263.0467407355
 31
0.0
  0
LINE
  5
25C
330
1F
100
AcDbEntity
  8
0
  6
PHANTOM
 62
     1
370
    18
100
AcDbLine
 10
-128.2578380311
 20
261.3348185898
 30
0.0
 11
-124.2578380311
 21
261.3348185898
 31
0.0
  0
LINE
  5
25D
330
1F
100
AcDbEntity
  8
0
  6
PHANTOM
 62
     1
370
    18
100
AcDbLine
 10
-128.2578380311
 20
260.0641146414
 30
0.0
 11
-124.2578380311
 21
260.0641146414
 31
0.0
  0
LINE
  5
25E
330
1F
100
AcDbEntity
  8
0
  6
PHANTOM
 62
     1
370
    18
100
AcDbLine
 10
-128.2578380311
 20
259.8420497316
 30
0.0
 11
-124.2578380311
 21
259.8420497316
 31
0.0
  0
LINE
  5
25F
330
1F
100
AcDbEntity
  8
0
  6
PHANTOM
 62
     1
370
    18
100
AcDbLine
 10
-172.4182562403
 20
279.2619826822
 30
0.0
 11
-177.4182562403
 21
279.2619826822
 31
0.0
  0
HATCH
  5
260
330
1F
100
AcDbEntity
  8
O-TEKST
  6
Continuous
370
    18
100
AcDbHatch
 10
0.0
 20
0.0
 30
0.0
210
0.0
220
0.0
230
1.0
  2
ANSI34
 70
     0
 71
     0
 91
        1
 92
        0
 93
        6
 72
     1
 10
-98.21825624032189
 20
187.561982682154
 11
-96.21825624032189
 21
187.561982682154
 72
     1
 10
-96.21825624032189
 20
187.561982682154
 11
-96.2182562403219
 21
259.5619826821541
 72
     1
 10
-96.2182562403219
 20
259.5619826821541
 11
-104.7993159621287
 21
259.561982682154
 72
     1
 10
-104.7993159621287
 20
259.561982682154
 11
-104.0242764474713
 21
222.561982682154
 72
     1
 10
-104.0242764474713
 20
222.561982682154
 11
-98.21825624032189
 21
222.561982682154
 72
     1
 10
-98.21825624032189
 20
222.561982682154
 11
-98.21825624032189
 21
187.561982682154
 97
        0
 75
     0
 76
     1
 52
0.0
 41
1.0
 77
     0
 78
     4
 53
45.0
 43
0.0
 44
0.0
 45
-13.47038418160373
 46
13.47038418160373
 79
     0
 53
45.0
 43
4.49013
 44
0.0
 45
-13.47038418160373
 46
13.47038418160373
 79
     0
 53
45.0
 43
8.98026
 44
0.0
 45
-13.47038418160373
 46
13.47038418160373
 79
     0
 53
45.0
 43
13.4704
 44
0.0
 45
-13.47038418160373
 46
13.47038418160373
 79
     0
 98
        1
 10
0.0
 20
0.0
  0
HATCH
  5
261
330
1F
100
AcDbEntity
  8
O-TEKST
  6
Continuous
370
    18
100
AcDbHatch
 10
0.0
 20
0.0
 30
0.0
210
0.0
220
0.0
230
1.0
  2
ANSI34
 70
     0
 71
     0
 91
        1
 92
        0
 93
        6
 72
     1
 10
-207.2182562403219
 20
279.561982682154
 11
-216.2182562403219
 21
279.561982682154
 72
     1
 10
-216.2182562403219
 20
279.561982682154
 11
-216.2182562403219
 21
187.561982682154
 72
     1
 10
-216.2182562403219
 20
187.561982682154
 11
-214.2182562403219
 21
187.561982682154
 72
     1
 10
-214.2182562403219
 20
187.561982682154
 11
-214.2182562403219
 21
222.561982682154
 72
     1
 10
-214.2182562403219
 20
222.561982682154
 11
-208.4122360331725
 21
222.561982682154
 72
     1
 10
-208.4122360331725
 20
222.561982682154
 11
-207.2182562403219
 21
279.561982682154
 97
        0
 75
     0
 76
     1
 52
0.0
 41
1.0
 77
     0
 78
     4
 53
45.0
 43
0.0
 44
0.0
 45
-13.47038418160373
 46
13.47038418160373
 79
     0
 53
45.0
 43
4.49013
 44
0.0
 45
-13.47038418160373
 46
13.47038418160373
 79
     0
 53
45.0
 43
8.98026
 44
0.0
 45
-13.47038418160373
 46
13.47038418160373
 79
     0
 53
45.0
 43
13.4704
 44
0.0
 45
-13.47038418160373
 46
13.47038418160373
 79
     0
 98
        1
 10
0.0
 20
0.0
  0
HATCH
  5
262
330
1F
100
AcDbEntity
  8
O-TEKST
  6
Continuous
370
    18
100
AcDbHatch
 10
0.0
 20
0.0
 30
0.0
210
0.0
220
0.0
230
1.0
  2
ANSI31
 70
     0
 71
     0
 91
        1
 92
        0
 93
        8
 72
     1
 10
-207.0182562403219
 20
279.561982682154
 11
-207.0182562403219
 21
279.961982682154
 72
     1
 10
-207.0182562403219
 20
279.961982682154
 11
-216.2182562403219
 21
279.961982682154
 72
     2
 10
-216.2182562403219
 20
280.261982682154
 40
0.2999999999999995
 50
89.99999999999459
 51
180.0
 73
     0
 72
     1
 10
-216.5182562403219
 20
280.261982682154
 11
-216.5182562403219
 21
286.961982682154
 72
     1
 10
-216.5182562403219
 20
286.961982682154
 11
-216.9182562403219
 21
286.961982682154
 72
     1
 10
-216.9182562403219
 20
286.961982682154
 11
-216.9182562403219
 21
280.261982682154
 72
     2
 10
-216.2182562403219
 20
280.261982682154
 40
0.6999999999999996
 50
180.0
 51
270.0000000000032
 73
     1
 72
     1
 10
-216.2182562403219
 20
279.561982682154
 11
-207.0182562403219
 21
279.561982682154
 97
        0
 75
     0
 76
     1
 52
90.0
 41
1.0
 77
     0
 78
     1
 53
135.0000000000002
 43
0.0
 44
0.0
 45
-2.245064030267281
 46
-2.245064030267296
 79
     0
 98
        1
 10
0.0
 20
0.0
  0
HATCH
  5
263
330
1F
100
AcDbEntity
  8
O-TEKST
  6
Continuous
370
    18
100
AcDbHatch
 10
0.0
 20
0.0
 30
0.0
210
0.0
220
0.0
230
1.0
  2
ANSI31
 70
     0
 71
     0
 91
        2
 92
        0
 93
        8
 72
     1
 10
-160.1182562403221
 20
279.9619826821538
 11
-163.118256240322
 21
279.9619826821538
 72
     2
 10
-163.1182562403221
 20
279.4619826821538
 40
0.4999999999999998
 50
89.99999999999675
 51
180.0
 73
     1
 72
     1
 10
-163.6182562403221
 20
279.4619826821538
 11
-163.6182562403221
 21
272.4619826821537
 72
     2
 10
-163.1182562403221
 20
272.4619826821537
 40
0.4999999999999998
 50
180.0
 51
270.0000000000008
 73
     1
 72
     1
 10
-163.1182562403221
 20
271.9619826821537
 11
-160.1182562403221
 21
271.9619826821538
 72
     2
 10
-160.1182562403221
 20
272.4619826821538
 40
0.4999999999999998
 50
270.0000000000008
 51
360.0000000000008
 73
     1
 72
     1
 10
-159.618256240322
 20
272.4619826821538
 11
-159.618256240322
 21
279.4619826821538
 72
     2
 10
-160.1182562403221
 20
279.4619826821538
 40
0.4999999999999998
 50
0.0
 51
90.0
 73
     1
 97
        0
 92
        0
 93
        4
 72
     1
 10
-160.1182562403221
 20
272.4619826821538
 11
-163.1182562403221
 21
272.4619826821537
 72
     1
 10
-163.1182562403221
 20
272.4619826821537
 11
-163.118256240322
 21
279.4619826821538
 72
     1
 10
-163.118256240322
 20
279.4619826821538
 11
-160.1182562403221
 21
279.4619826821538
 72
     1
 10
-160.1182562403221
 20
279.4619826821538
 11
-160.1182562403221
 21
272.4619826821538
 97
        0
 75
     0
 76
     1
 52
0.0
 41
1.0
 77
     0
 78
     1
 53
45.0
 43
0.0
 44
0.0
 45
-2.245064030267288
 46
2.245064030267288
 79
     0
 98
        1
 10
0.0
 20
0.0
  0
HATCH
  5
264
330
1F
100
AcDbEntity
  8
O-TEKST
  6
Continuous
370
    18
100
AcDbHatch
 10
0.0
 20
0.0
 30
0.0
210
0.0
220
0.0
230
1.0
  2
ANSI31
 70
     0
 71
     0
 91
        1
 92
        0
 93
        6
 72
     1
 10
-151.3182562403221
 20
286.9619826821538
 11
-151.718256240322
 21
286.9619826821538
 72
     1
 10
-151.718256240322
 20
286.9619826821538
 11
-151.718256240322
 21
279.9619826821537
 72
     1
 10
-151.718256240322
 20
279.9619826821537
 11
-159.618256240322
 21
279.9619826821538
 72
     1
 10
-159.618256240322
 20
279.9619826821538
 11
-159.618256240322
 21
279.5619826821538
 72
     1
 10
-159.618256240322
 20
279.5619826821538
 11
-151.3182562403221
 21
279.5619826821537
 72
     1
 10
-151.3182562403221
 20
279.5619826821537
 11
-151.3182562403221
 21
286.9619826821538
 97
        0
 75
     0
 76
     1
 52
0.0
 41
1.0
 77
     0
 78
     1
 53
45.0
 43
0.0
 44
0.0
 45
-2.245064030267288
 46
2.245064030267288
 79
     0
 98
        1
 10
0.0
 20
0.0
  0
HATCH
  5
265
330
1F
100
AcDbEntity
  8
0
  6
Continuous
 62
     7
370
    18
100
AcDbHatch
 10
0.0
 20
0.0
 30
0.0
210
0.0
220
0.0
230
1.0
  2
ANSI31
 70
     0
 71
     0
 91
        1
 92
        0
 93
        6
 72
     1
 10
-151.8182562403219
 20
286.961982682154
 11
-152.1228842238876
 21
286.961982682154
 72
     1
 10
-152.1228842238876
 20
286.961982682154
 11
-153.3042749946344
 21
280.261982682154
 72
     1
 10
-153.3042749946344
 20
280.261982682154
 11
-159.0525451052812
 21
280.261982682154
 72
     1
 10
-159.0525451052812
 20
280.261982682154
 11
-159.0525451052812
 21
279.961982682154
 72
     1
 10
-159.0525451052812
 20
279.961982682154
 11
-153.0525451052812
 21
279.961982682154
 72
     1
 10
-153.0525451052812
 20
279.961982682154
 11
-151.8182562403219
 21
286.961982682154
 97
        0
 75
     0
 76
     1
 52
90.0
 41
1.0
 77
     0
 78
     1
 53
135.0000000000002
 43
0.0
 44
0.0
 45
-2.245064030267281
 46
-2.245064030267296
 79
     0
 98
        1
 10
0.0
 20
0.0
  0
HATCH
  5
266
330
1F
100
AcDbEntity
  8
0
  6
Continuous
 62
     7
370
    18
100
AcDbHatch
 10
0.0
 20
0.0
 30
0.0
210
0.0
220
0.0
230
1.0
  2
ANSI31
 70
     0
 71
     0
 91
        1
 92
        0
 93
        6
 72
     1
 10
-216.1136282567562
 20
286.961982682154
 11
-216.4182562403219
 21
286.961982682154
 72
     1
 10
-216.4182562403219
 20
286.961982682154
 11
-215.1839673753626
 21
279.9619826821539
 72
     1
 10
-215.1839673753626
 20
279.9619826821539
 11
-209.1839673753626
 21
279.9619826821539
 72
     1
 10
-209.1839673753626
 20
279.9619826821539
 11
-209.1839673753626
 21
280.2619826821539
 72
     1
 10
-209.1839673753626
 20
280.2619826821539
 11
-214.9322374860095
 21
280.2619826821539
 72
     1
 10
-214.9322374860095
 20
280.2619826821539
 11
-216.1136282567562
 21
286.961982682154
 97
        0
 75
     0
 76
     1
 52
90.0
 41
1.0
 77
     0
 78
     1
 53
135.0000000000002
 43
0.0
 44
0.0
 45
-2.245064030267281
 46
-2.245064030267296
 79
     0
 98
        1
 10
0.0
 20
0.0
  0
HATCH
  5
267
330
1F
100
AcDbEntity
  8
0
  6
Continuous
 62
     7
370
    18
100
AcDbHatch
 10
0.0
 20
0.0
 30
0.0
210
0.0
220
0.0
230
1.0
  2
ANSI34
 70
     0
 71
     0
 91
        1
 92
        0
 93
        4
 72
     1
 10
-152.1182562403218
 20
286.9619826821539
 11
-216.1182562403219
 21
286.961982682154
 72
     1
 10
-216.1182562403219
 20
286.961982682154
 11
-214.9368654695752
 21
280.261982682154
 72
     1
 10
-214.9368654695752
 20
280.261982682154
 11
-153.2996470110686
 21
280.2619826821539
 72
     1
 10
-153.2996470110686
 20
280.2619826821539
 11
-152.1182562403218
 21
286.9619826821539
 97
        0
 75
     0
 76
     1
 52
0.0
 41
1.0
 77
     0
 78
     4
 53
45.0
 43
0.0
 44
0.0
 45
-13.47038418160373
 46
13.47038418160373
 79
     0
 53
45.0
 43
4.49013
 44
0.0
 45
-13.47038418160373
 46
13.47038418160373
 79
     0
 53
45.0
 43
8.98026
 44
0.0
 45
-13.47038418160373
 46
13.47038418160373
 79
     0
 53
45.0
 43
13.4704
 44
0.0
 45
-13.47038418160373
 46
13.47038418160373
 79
     0
 98
        1
 10
0.0
 20
0.0
  0
INSERT
  5
26D
330
1F
100
AcDbEntity
  8
O-TEKST
100
AcDbBlockReference
  2
SW_NOTE_0
 10
-178.1031499021
 20
166.2360796485
 30
0.0
  0
LINE
  5
26E
330
1F
100
AcDbEntity
  8
0
  6
Continuous
 62
     7
370
    25
100
AcDbLine
 10
340.2542599366
 20
85.2755935999
 30
0.0
 11
340.2542599366
 21
85.6755935999
 31
0.0
  0
LINE
  5
26F
330
1F
100
AcDbEntity
  8
0
  6
Continuous
 62
     7
370
    25
100
AcDbLine
 10
373.2542599366
 20
85.6755935999
 30
0.0
 11
373.2542599366
 21
85.2755935999
 31
0.0
  0
LINE
  5
270
330
1F
100
AcDbEntity
  8
0
  6
Continuous
 62
     7
370
    25
100
AcDbLine
 10
373.2542599366
 20
85.2755935999
 30
0.0
 11
340.2542599366
 21
85.2755935999
 31
0.0
  0
LINE
  5
271
330
1F
100
AcDbEntity
  8
0
  6
Continuous
 62
     7
370
    25
100
AcDbLine
 10
373.2542599366
 20
85.6755935999
 30
0.0
 11
340.2542599366
 21
85.6755935999
 31
0.0
  0
LINE
  5
272
330
1F
100
AcDbEntity
  8
0
  6
Continuous
 62
     7
370
    25
100
AcDbLine
 10
340.2542599366
 20
-64.1244064001
 30
0.0
 11
340.2542599366
 21
-63.7244064001
 31
0.0
  0
LINE
  5
273
330
1F
100
AcDbEntity
  8
0
  6
Continuous
 62
     7
370
    25
100
AcDbLine
 10
340.2542599366
 20
-63.7244064001
 30
0.0
 11
373.2542599366
 21
-63.7244064001
 31
0.0
  0
LINE
  5
274
330
1F
100
AcDbEntity
  8
0
  6
Continuous
 62
     7
370
    25
100
AcDbLine
 10
373.2542599366
 20
-63.7244064001
 30
0.0
 11
373.2542599366
 21
-64.1244064001
 31
0.0
  0
LINE
  5
275
330
1F
100
AcDbEntity
  8
0
  6
Continuous
 62
     7
370
    25
100
AcDbLine
 10
340.2542599366
 20
-64.1244064001
 30
0.0
 11
373.2542599366
 21
-64.1244064001
 31
0.0
  0
LINE
  5
276
330
1F
100
AcDbEntity
  8
0
  6
Continuous
 62
     7
370
    25
100
AcDbLine
 10
345.8542599366
 20
84.9755935999
 30
0.0
 11
273.8542599366
 21
84.9755935999
 31
0.0
  0
LINE
  5
277
330
1F
100
AcDbEntity
  8
0
  6
Continuous
 62
     7
370
    25
100
AcDbLine
 10
345.8542599366
 20
76.3945338781
 30
0.0
 11
345.8542599366
 21
84.9755935999
 31
0.0
  0
LINE
  5
278
330
1F
100
AcDbEntity
  8
0
  6
Continuous
 62
     7
370
    25
100
AcDbLine
 10
308.8542599366
 20
82.9755935999
 30
0.0
 11
308.8542599366
 21
77.1695733928
 31
0.0
  0
LINE
  5
279
330
1F
100
AcDbEntity
  8
0
  6
Continuous
 62
     7
370
    25
100
AcDbLine
 10
308.8542599366
 20
82.9755935999
 30
0.0
 11
273.8542599366
 21
82.9755935999
 31
0.0
  0
LINE
  5
27A
330
1F
100
AcDbEntity
  8
0
  6
Continuous
 62
     7
370
    25
100
AcDbLine
 10
273.8542599366
 20
82.9755935999
 30
0.0
 11
273.8542599366
 21
84.9755935999
 31
0.0
  0
LINE
  5
27B
330
1F
100
AcDbEntity
  8
0
  6
Continuous
 62
     7
370
    25
100
AcDbLine
 10
308.8542599366
 20
77.1695733928
 30
0.0
 11
345.8542599366
 21
76.3945338781
 31
0.0
  0
LINE
  5
27C
330
1F
100
AcDbEntity
  8
0
  6
Continuous
 62
     7
370
    25
100
AcDbLine
 10
308.8542599366
 20
-55.6183861929
 30
0.0
 11
308.8542599366
 21
-61.4244064001
 31
0.0
  0
LINE
  5
27D
330
1F
100
AcDbEntity
  8
0
  6
Continuous
 62
     7
370
    25
100
AcDbLine
 10
345.8542599366
 20
-63.4244064001
 30
0.0
 11
345.8542599366
 21
-54.8433466783
 31
0.0
  0
LINE
  5
27E
330
1F
100
AcDbEntity
  8
0
  6
Continuous
 62
     7
370
    25
100
AcDbLine
 10
273.8542599366
 20
-61.4244064001
 30
0.0
 11
308.8542599366
 21
-61.4244064001
 31
0.0
  0
LINE
  5
27F
330
1F
100
AcDbEntity
  8
0
  6
Continuous
 62
     7
370
    25
100
AcDbLine
 10
273.8542599366
 20
-63.4244064001
 30
0.0
 11
345.8542599366
 21
-63.4244064001
 31
0.0
  0
LINE
  5
280
330
1F
100
AcDbEntity
  8
0
  6
Continuous
 62
     7
370
    25
100
AcDbLine
 10
273.8542599366
 20
-63.4244064001
 30
0.0
 11
273.8542599366
 21
-61.4244064001
 31
0.0
  0
LINE
  5
281
330
1F
100
AcDbEntity
  8
0
  6
Continuous
 62
     7
370
    25
100
AcDbLine
 10
345.8542599366
 20
-54.8433466783
 30
0.0
 11
308.8542599366
 21
-55.6183861929
 31
0.0
  0
LINE
  5
282
330
1F
100
AcDbEntity
  8
0
  6
Continuous
 62
     7
370
    25
100
AcDbLine
 10
273.8542599366
 20
-56.3515316798
 30
0.0
 11
273.8542599366
 21
-61.4244064001
 31
0.0
  0
LINE
  5
283
330
1F
100
AcDbEntity
  8
0
  6
Continuous
 62
     7
370
    25
100
AcDbLine
 10
273.8542599366
 20
-56.3515316798
 30
0.0
 11
308.8542599366
 21
-55.6183861929
 31
0.0
  0
LINE
  5
284
330
1F
100
AcDbEntity
  8
0
  6
Continuous
 62
     7
370
    25
100
AcDbLine
 10
273.8542599366
 20
82.9755935999
 30
0.0
 11
273.8542599366
 21
77.9027188796
 31
0.0
  0
LINE
  5
285
330
1F
100
AcDbEntity
  8
0
  6
Continuous
 62
     7
370
    25
100
AcDbLine
 10
308.8542599366
 20
77.1695733928
 30
0.0
 11
273.8542599366
 21
77.9027188796
 31
0.0
  0
LINE
  5
286
330
1F
100
AcDbEntity
  8
0
  6
Continuous
 62
     7
370
    25
100
AcDbLine
 10
273.8542599366
 20
-24.2244064001
 30
0.0
 11
308.8542599366
 21
-14.2244064001
 31
0.0
  0
LINE
  5
287
330
1F
100
AcDbEntity
  8
0
  6
Continuous
 62
     7
370
    25
100
AcDbLine
 10
308.8542599366
 20
-14.2244064001
 30
0.0
 11
308.8542599366
 21
35.7755935999
 31
0.0
  0
LINE
  5
288
330
1F
100
AcDbEntity
  8
0
  6
Continuous
 62
     7
370
    25
100
AcDbLine
 10
308.8542599366
 20
35.7755935999
 30
0.0
 11
273.8542599366
 21
45.7755935999
 31
0.0
  0
LINE
  5
289
330
1F
100
AcDbEntity
  8
0
  6
Continuous
 62
     7
370
    25
100
AcDbLine
 10
345.8542599366
 20
75.9944461323
 30
0.0
 11
345.8542599366
 21
-54.4432589324
 31
0.0
  0
LINE
  5
28A
330
1F
100
AcDbEntity
  8
0
  6
Continuous
 62
     7
370
    25
100
AcDbLine
 10
273.8542599366
 20
45.7755935999
 30
0.0
 11
273.8542599366
 21
77.9027188796
 31
0.0
  0
LINE
  5
28B
330
1F
100
AcDbEntity
  8
0
  6
Continuous
 62
     7
370
    25
100
AcDbLine
 10
273.8542599366
 20
-56.3515316798
 30
0.0
 11
273.8542599366
 21
-24.2244064001
 31
0.0
  0
LINE
  5
28C
330
1F
100
AcDbEntity
  8
0
  6
Continuous
 62
     7
370
    25
100
AcDbLine
 10
273.8542599366
 20
45.7755935999
 30
0.0
 11
273.8542599366
 21
-24.2244064001
 31
0.0
  0
LINE
  5
28D
330
1F
100
AcDbEntity
  8
0
  6
Continuous
 62
     7
370
    25
100
AcDbLine
 10
338.770662133
 20
-54.5916391541
 30
0.0
 11
346.1343269861
 21
-54.437392364
 31
0.0
  0
LINE
  5
28E
330
1F
100
AcDbEntity
  8
0
  6
Continuous
 62
     7
370
    25
100
AcDbLine
 10
338.770662133
 20
-54.5916391541
 30
0.0
 11
338.779039101
 21
-54.9915514275
 31
0.0
  0
LINE
  5
28F
330
1F
100
AcDbEntity
  8
0
  6
Continuous
 62
     7
370
    25
100
AcDbLine
 10
345.8542599366
 20
-54.8433466783
 30
0.0
 11
346.142703954
 21
-54.8373046374
 31
0.0
  0
ARC
  5
290
330
1F
100
AcDbEntity
  8
0
  6
Continuous
 62
     7
370
    25
100
AcDbCircle
 10
348.1599069945
 20
-53.2947212103
 30
0.0
 40
0.300000000000155
100
AcDbArc
 50
91.2
 51
139.5664606634
  0
ARC
  5
291
330
1F
100
AcDbEntity
  8
0
  6
Continuous
 62
     7
370
    25
100
AcDbCircle
 10
348.1599069945
 20
-53.2947212103
 30
0.0
 40
0.700000000000059
100
AcDbArc
 50
91.2
 51
139.5664606635
  0
ARC
  5
292
330
1F
100
AcDbEntity
  8
0
  6
Continuous
 62
     7
370
    25
100
AcDbCircle
 10
346.1280442601
 20
-54.137458159
 30
0.0
 40
0.300000000000109
100
AcDbArc
 50
271.2
 51
319.5664606635
  0
ARC
  5
293
330
1F
100
AcDbEntity
  8
0
  6
Continuous
 62
     7
370
    25
100
AcDbCircle
 10
346.1280442601
 20
-54.137458159
 30
0.0
 40
0.7000000000000249
100
AcDbArc
 50
271.2
 51
319.5664606634
  0
LINE
  5
294
330
1F
100
AcDbEntity
  8
0
  6
Continuous
 62
     7
370
    25
100
AcDbLine
 10
346.3563918959
 20
-54.3320278309
 30
0.0
 11
347.6270958443
 21
-52.8407253092
 31
0.0
  0
LINE
  5
295
330
1F
100
AcDbEntity
  8
0
  6
Continuous
 62
     7
370
    25
100
AcDbLine
 10
346.6608554103
 20
-54.5914540602
 30
0.0
 11
347.9315593587
 21
-53.1001515384
 31
0.0
  0
LINE
  5
296
330
1F
100
AcDbEntity
  8
0
  6
Continuous
 62
     7
370
    25
100
AcDbLine
 10
351.338579357
 20
-52.9280717068
 30
0.0
 11
351.330202389
 21
-52.5281594334
 31
0.0
  0
LINE
  5
297
330
1F
100
AcDbEntity
  8
0
  6
Continuous
 62
     7
370
    25
100
AcDbLine
 10
348.1536242685
 20
-52.9947870053
 30
0.0
 11
351.338579357
 21
-52.9280717068
 31
0.0
  0
LINE
  5
298
330
1F
100
AcDbEntity
  8
0
  6
Continuous
 62
     7
370
    25
100
AcDbLine
 10
348.1452473006
 20
-52.5948747319
 30
0.0
 11
351.330202389
 21
-52.5281594334
 31
0.0
  0
LINE
  5
299
330
1F
100
AcDbEntity
  8
0
  6
Continuous
 62
     7
370
    25
100
AcDbLine
 10
338.770662133
 20
76.142826354
 30
0.0
 11
346.1343269861
 21
75.9885795639
 31
0.0
  0
LINE
  5
29A
330
1F
100
AcDbEntity
  8
0
  6
Continuous
 62
     7
370
    25
100
AcDbLine
 10
338.770662133
 20
76.142826354
 30
0.0
 11
338.779039101
 21
76.5427386274
 31
0.0
  0
LINE
  5
29B
330
1F
100
AcDbEntity
  8
0
  6
Continuous
 62
     7
370
    25
100
AcDbLine
 10
345.8542599366
 20
76.3945338781
 30
0.0
 11
346.142703954
 21
76.3884918373
 31
0.0
  0
LINE
  5
29C
330
1F
100
AcDbEntity
  8
0
  6
Continuous
 62
     7
370
    25
100
AcDbLine
 10
346.3563918959
 20
75.8832150308
 30
0.0
 11
347.6270958443
 21
74.391912509
 31
0.0
  0
LINE
  5
29D
330
1F
100
AcDbEntity
  8
0
  6
Continuous
 62
     7
370
    25
100
AcDbLine
 10
346.6608554103
 20
76.14264126
 30
0.0
 11
347.9315593587
 21
74.6513387382
 31
0.0
  0
ARC
  5
29E
330
1F
100
AcDbEntity
  8
0
  6
Continuous
 62
     7
370
    25
100
AcDbCircle
 10
346.1280442601
 20
75.6886453588
 30
0.0
 40
0.3000000000000352
100
AcDbArc
 50
40.4335393365
 51
88.8
  0
ARC
  5
29F
330
1F
100
AcDbEntity
  8
0
  6
Continuous
 62
     7
370
    25
100
AcDbCircle
 10
346.1280442601
 20
75.6886453588
 30
0.0
 40
0.6999999999999419
100
AcDbArc
 50
40.4335393365
 51
88.8
  0
ARC
  5
2A0
330
1F
100
AcDbEntity
  8
0
  6
Continuous
 62
     7
370
    25
100
AcDbCircle
 10
348.1599069945
 20
74.8459084102
 30
0.0
 40
0.300000000000155
100
AcDbArc
 50
220.4335393366
 51
268.8
  0
ARC
  5
2A1
330
1F
100
AcDbEntity
  8
0
  6
Continuous
 62
     7
370
    25
100
AcDbCircle
 10
348.1599069945
 20
74.8459084102
 30
0.0
 40
0.7000000000000222
100
AcDbArc
 50
220.4335393365
 51
268.8
  0
LINE
  5
2A2
330
1F
100
AcDbEntity
  8
0
  6
Continuous
 62
     7
370
    25
100
AcDbLine
 10
348.1536242685
 20
74.5459742051
 30
0.0
 11
351.338579357
 21
74.4792589066
 31
0.0
  0
LINE
  5
2A3
330
1F
100
AcDbEntity
  8
0
  6
Continuous
 62
     7
370
    25
100
AcDbLine
 10
351.338579357
 20
74.4792589066
 30
0.0
 11
351.330202389
 21
74.0793466332
 31
0.0
  0
LINE
  5
2A4
330
1F
100
AcDbEntity
  8
0
  6
Continuous
 62
     7
370
    25
100
AcDbLine
 10
348.1452473006
 20
74.1460619317
 30
0.0
 11
351.330202389
 21
74.0793466332
 31
0.0
  0
LINE
  5
2A5
330
1F
100
AcDbEntity
  8
0
  6
PHANTOM
 62
     1
370
    18
100
AcDbLine
 10
346.142703954
 20
-54.8373046374
 30
0.0
 11
346.1343269861
 21
-54.437392364
 31
0.0
  0
LINE
  5
2A6
330
1F
100
AcDbEntity
  8
0
  6
PHANTOM
 62
     1
370
    18
100
AcDbLine
 10
347.9315593587
 20
-53.1001515384
 30
0.0
 11
347.6270958443
 21
-52.8407253092
 31
0.0
  0
LINE
  5
2A7
330
1F
100
AcDbEntity
  8
0
  6
PHANTOM
 62
     1
370
    18
100
AcDbLine
 10
348.1452473006
 20
-52.5948747319
 30
0.0
 11
348.1536242685
 21
-52.9947870053
 31
0.0
  0
LINE
  5
2A8
330
1F
100
AcDbEntity
  8
0
  6
PHANTOM
 62
     1
370
    18
100
AcDbLine
 10
346.3563918959
 20
-54.3320278309
 30
0.0
 11
346.6608554103
 21
-54.5914540602
 31
0.0
  0
LINE
  5
2A9
330
1F
100
AcDbEntity
  8
0
  6
PHANTOM
 62
     1
370
    18
100
AcDbLine
 10
346.1343269861
 20
75.9885795639
 30
0.0
 11
346.142703954
 21
76.3884918373
 31
0.0
  0
LINE
  5
2AA
330
1F
100
AcDbEntity
  8
0
  6
PHANTOM
 62
     1
370
    18
100
AcDbLine
 10
346.6608554103
 20
76.14264126
 30
0.0
 11
346.3563918959
 21
75.8832150308
 31
0.0
  0
LINE
  5
2AB
330
1F
100
AcDbEntity
  8
0
  6
PHANTOM
 62
     1
370
    18
100
AcDbLine
 10
347.6270958443
 20
74.391912509
 30
0.0
 11
347.9315593587
 21
74.6513387382
 31
0.0
  0
LINE
  5
2AC
330
1F
100
AcDbEntity
  8
0
  6
PHANTOM
 62
     1
370
    18
100
AcDbLine
 10
348.1536242685
 20
74.5459742051
 30
0.0
 11
348.1452473006
 21
74.1460619317
 31
0.0
  0
HATCH
  5
2AD
330
1F
100
AcDbEntity
  8
O-TEKST
  6
Continuous
370
    18
100
AcDbHatch
 10
0.0
 20
0.0
 30
0.0
210
0.0
220
0.0
230
1.0
  2
ANSI34
 70
     0
 71
     0
 91
        1
 92
        0
 93
        6
 72
     1
 10
273.854259936642
 20
-61.42440640008813
 11
273.854259936642
 21
-63.42440640008813
 72
     1
 10
273.854259936642
 20
-63.42440640008813
 11
345.854259936642
 21
-63.42440640008816
 72
     1
 10
345.854259936642
 20
-63.42440640008816
 11
345.854259936642
 21
-54.84334667828132
 72
     1
 10
345.854259936642
 20
-54.84334667828132
 11
308.854259936642
 21
-55.61838619293873
 72
     1
 10
308.854259936642
 20
-55.61838619293873
 11
308.854259936642
 21
-61.42440640008813
 72
     1
 10
308.854259936642
 20
-61.42440640008813
 11
273.854259936642
 21
-61.42440640008813
 97
        0
 75
     0
 76
     1
 52
0.0
 41
1.0
 77
     0
 78
     4
 53
45.0
 43
0.0
 44
0.0
 45
-13.47038418160373
 46
13.47038418160373
 79
     0
 53
45.0
 43
4.49013
 44
0.0
 45
-13.47038418160373
 46
13.47038418160373
 79
     0
 53
45.0
 43
8.98026
 44
0.0
 45
-13.47038418160373
 46
13.47038418160373
 79
     0
 53
45.0
 43
13.4704
 44
0.0
 45
-13.47038418160373
 46
13.47038418160373
 79
     0
 98
        1
 10
0.0
 20
0.0
  0
HATCH
  5
2AE
330
1F
100
AcDbEntity
  8
O-TEKST
  6
Continuous
370
    18
100
AcDbHatch
 10
0.0
 20
0.0
 30
0.0
210
0.0
220
0.0
230
1.0
  2
ANSI34
 70
     0
 71
     0
 91
        1
 92
        0
 93
        6
 72
     1
 10
273.854259936642
 20
84.97559359991187
 11
273.854259936642
 21
82.97559359991187
 72
     1
 10
273.854259936642
 20
82.97559359991187
 11
308.854259936642
 21
82.97559359991187
 72
     1
 10
308.854259936642
 20
82.97559359991187
 11
308.854259936642
 21
77.1695733927625
 72
     1
 10
308.854259936642
 20
77.1695733927625
 11
345.854259936642
 21
76.39453387810508
 72
     1
 10
345.854259936642
 20
76.39453387810508
 11
345.854259936642
 21
84.97559359991187
 72
     1
 10
345.854259936642
 20
84.97559359991187
 11
273.854259936642
 21
84.97559359991187
 97
        0
 75
     0
 76
     1
 52
0.0
 41
1.0
 77
     0
 78
     4
 53
45.0
 43
0.0
 44
0.0
 45
-13.47038418160373
 46
13.47038418160373
 79
     0
 53
45.0
 43
4.49013
 44
0.0
 45
-13.47038418160373
 46
13.47038418160373
 79
     0
 53
45.0
 43
8.98026
 44
0.0
 45
-13.47038418160373
 46
13.47038418160373
 79
     0
 53
45.0
 43
13.4704
 44
0.0
 45
-13.47038418160373
 46
13.47038418160373
 79
     0
 98
        1
 10
0.0
 20
0.0
  0
HATCH
  5
2AF
330
1F
100
AcDbEntity
  8
0
  6
Continuous
 62
     7
370
    18
100
AcDbHatch
 10
0.0
 20
0.0
 30
0.0
210
0.0
220
0.0
230
1.0
  2
ANSI31
 70
     0
 71
     0
 91
        1
 92
        0
 93
        4
 72
     1
 10
373.2542599366418
 20
-64.1244064000881
 11
373.2542599366418
 21
-63.72440640008811
 72
     1
 10
373.2542599366418
 20
-63.72440640008811
 11
340.2542599366418
 21
-63.72440640008811
 72
     1
 10
340.2542599366418
 20
-63.72440640008811
 11
340.2542599366418
 21
-64.1244064000881
 72
     1
 10
340.2542599366418
 20
-64.1244064000881
 11
373.2542599366418
 21
-64.1244064000881
 97
        0
 75
     0
 76
     1
 52
0.0
 41
1.0
 77
     0
 78
     1
 53
45.0
 43
0.0
 44
0.0
 45
-2.245064030267288
 46
2.245064030267288
 79
     0
 98
        1
 10
0.0
 20
0.0
  0
HATCH
  5
2B0
330
1F
100
AcDbEntity
  8
0
  6
Continuous
 62
     7
370
    18
100
AcDbHatch
 10
0.0
 20
0.0
 30
0.0
210
0.0
220
0.0
230
1.0
  2
ANSI31
 70
     0
 71
     0
 91
        1
 92
        0
 93
        4
 72
     1
 10
373.2542599366418
 20
85.27559359991186
 11
373.2542599366418
 21
85.67559359991185
 72
     1
 10
373.2542599366418
 20
85.67559359991185
 11
340.2542599366418
 21
85.67559359991185
 72
     1
 10
340.2542599366418
 20
85.67559359991185
 11
340.2542599366418
 21
85.27559359991186
 72
     1
 10
340.2542599366418
 20
85.27559359991186
 11
373.2542599366418
 21
85.27559359991186
 97
        0
 75
     0
 76
     1
 52
0.0
 41
1.0
 77
     0
 78
     1
 53
45.0
 43
0.0
 44
0.0
 45
-2.245064030267288
 46
2.245064030267288
 79
     0
 98
        1
 10
0.0
 20
0.0
  0
INSERT
  5
2B6
330
1F
100
AcDbEntity
  8
O-TEKST
100
AcDbBlockReference
  2
SW_NOTE_1
 10
302.7922820554
 20
-86.4903094337
 30
0.0
  0
LINE
  5
2B7
330
1F
100
AcDbEntity
  8
0
  6
Continuous
 62
     7
370
    25
100
AcDbLine
 10
446.9132567358
 20
360.8595103628
 30
0.0
 11
449.7416838605
 21
359.2266941392
 31
0.0
  0
LINE
  5
2B8
330
1F
100
AcDbEntity
  8
0
  6
Continuous
 62
     7
370
    25
100
AcDbLine
 10
451.0375319845
 20
359.1240723403
 30
0.0
 11
449.8779545554
 21
359.7934821413
 31
0.0
  0
LINE
  5
2B9
330
1F
100
AcDbEntity
  8
0
  6
Continuous
 62
     7
370
    25
100
AcDbLine
 10
293.4493536918
 20
351.5870690889
 30
0.0
 11
322.2321022216
 21
334.9711420426
 31
0.0
  0
ARC
  5
2BA
330
1F
100
AcDbEntity
  8
0
  6
Continuous
 62
     7
370
    25
100
AcDbCircle
 10
357.2244206191
 20
374.6658256609
 30
0.0
 40
0.3056307217840224
100
AcDbArc
 50
290.7834207995
 51
69.2165792005
  0
LINE
  5
2BB
330
1F
100
AcDbEntity
  8
0
  6
Continuous
 62
     7
370
    25
100
AcDbLine
 10
357.3328695379
 20
374.9515685
 30
0.0
 11
356.1307880099
 21
375.6455153951
 31
0.0
  0
ARC
  5
2BC
330
1F
100
AcDbEntity
  8
0
  6
Continuous
 62
     7
370
    25
100
AcDbCircle
 10
355.635813263
 20
374.6902176356
 30
0.0
 40
1.075915335537993
100
AcDbArc
 50
62.6096722366
 51
117.3903277634
  0
LINE
  5
2BD
330
1F
100
AcDbEntity
  8
0
  6
Continuous
 62
     7
370
    25
100
AcDbLine
 10
355.1408385162
 20
375.6455153951
 30
0.0
 11
354.99941716
 21
375.5638745839
 31
0.0
  0
ARC
  5
2BE
330
1F
100
AcDbEntity
  8
0
  6
Continuous
 62
     7
370
    25
100
AcDbCircle
 10
355.1078660787
 20
375.2781317448
 30
0.0
 40
0.3056307217840022
100
AcDbArc
 50
110.7834207995
 51
249.2165792005
  0
LINE
  5
2BF
330
1F
100
AcDbEntity
  8
0
  6
Continuous
 62
     7
370
    25
100
AcDbLine
 10
354.99941716
 20
374.9923889056
 30
0.0
 11
356.201498688
 21
374.2984420106
 31
0.0
  0
ARC
  5
2C0
330
1F
100
AcDbEntity
  8
0
  6
Continuous
 62
     7
370
    25
100
AcDbCircle
 10
356.6964734348
 20
375.25373977
 30
0.0
 40
1.075915335538623
100
AcDbArc
 50
242.6096722366
 51
297.3903277634
  0
LINE
  5
2C1
330
1F
100
AcDbEntity
  8
0
  6
Continuous
 62
     7
370
    25
100
AcDbLine
 10
357.1914481816
 20
374.2984420106
 30
0.0
 11
357.3328695379
 21
374.3800828218
 31
0.0
  0
LINE
  5
2C2
330
1F
100
AcDbEntity
  8
0
  6
Continuous
 62
     7
370
    25
100
AcDbLine
 10
357.4742908941
 20
375.0332093112
 30
0.0
 11
356.2722093661
 21
375.7271562063
 31
0.0
  0
LWPOLYLINE
  5
2C3
330
1F
100
AcDbEntity
  8
0
  6
Continuous
 62
     7
370
    25
100
AcDbPolyline
 90
        9
 70
   128
 43
0.0
 10
357.4742908941
 20
374.2984420106
 10
357.5862174421
 20
374.377174179
 10
357.6693863703
 20
374.4669990621
 10
357.7206015434
 20
374.5644647398
 10
357.7378947911
 20
374.6658256609
 10
357.7206015434
 20
374.767186582
 10
357.6693863703
 20
374.8646522597
 10
357.5862174421
 20
374.9544771427
 10
357.4742908941
 20
375.0332093112
  0
LINE
  5
2C4
330
1F
100
AcDbEntity
  8
0
  6
Continuous
 62
     7
370
    25
100
AcDbLine
 10
357.3328695379
 20
374.2168011994
 30
0.0
 11
357.4742908941
 21
374.2984420106
 31
0.0
  0
ARC
  5
2C5
330
1F
100
AcDbEntity
  8
0
  6
Continuous
 62
     7
370
    25
100
AcDbCircle
 10
356.6964734348
 20
375.4450411759
 30
0.0
 40
1.383319717120807
100
AcDbArc
 50
242.6096722366
 51
297.3903277634
  0
LINE
  5
2C6
330
1F
100
AcDbEntity
  8
0
  6
Continuous
 62
     7
370
    25
100
AcDbLine
 10
354.8579958037
 20
374.9107480944
 30
0.0
 11
356.0600773317
 21
374.2168011994
 31
0.0
  0
LWPOLYLINE
  5
2C7
330
1F
100
AcDbEntity
  8
0
  6
Continuous
 62
     7
370
    25
100
AcDbPolyline
 90
        9
 70
   128
 43
0.0
 10
354.8579958037
 20
375.6455153951
 10
354.7460692557
 20
375.5667832266
 10
354.6629003275
 20
375.4769583436
 10
354.6116851544
 20
375.3794926658
 10
354.5943919068
 20
375.2781317448
 10
354.6116851544
 20
375.1767708237
 10
354.6629003275
 20
375.079305146
 10
354.7460692557
 20
374.9894802629
 10
354.8579958037
 20
374.9107480944
  0
LINE
  5
2C8
330
1F
100
AcDbEntity
  8
0
  6
Continuous
 62
     7
370
    25
100
AcDbLine
 10
354.99941716
 20
375.7271562063
 30
0.0
 11
354.8579958037
 21
375.6455153951
 31
0.0
  0
ARC
  5
2C9
330
1F
100
AcDbEntity
  8
0
  6
Continuous
 62
     7
370
    25
100
AcDbCircle
 10
355.635813263
 20
374.4989162298
 30
0.0
 40
1.383319717121187
100
AcDbArc
 50
62.6096722366
 51
117.3903277634
  0
ARC
  5
2CA
330
1F
100
AcDbEntity
  8
0
  6
Continuous
 62
     7
370
    25
100
AcDbCircle
 10
367.6943667838
 20
382.54416394
 30
0.0
 40
0.3056307217840224
100
AcDbArc
 50
110.7834207995
 51
249.2165792005
  0
LINE
  5
2CB
330
1F
100
AcDbEntity
  8
0
  6
Continuous
 62
     7
370
    25
100
AcDbLine
 10
367.5859178651
 20
382.2584211008
 30
0.0
 11
368.7879993931
 21
381.5644742058
 31
0.0
  0
ARC
  5
2CC
330
1F
100
AcDbEntity
  8
0
  6
Continuous
 62
     7
370
    25
100
AcDbCircle
 10
369.2829741399
 20
382.5197719653
 30
0.0
 40
1.075915335538421
100
AcDbArc
 50
242.6096722366
 51
297.3903277634
  0
LINE
  5
2CD
330
1F
100
AcDbEntity
  8
0
  6
Continuous
 62
     7
370
    25
100
AcDbLine
 10
369.7779488868
 20
381.5644742058
 30
0.0
 11
369.919370243
 21
381.646115017
 31
0.0
  0
ARC
  5
2CE
330
1F
100
AcDbEntity
  8
0
  6
Continuous
 62
     7
370
    25
100
AcDbCircle
 10
369.8109213242
 20
381.9318578561
 30
0.0
 40
0.3056307217840022
100
AcDbArc
 50
290.7834207995
 51
69.2165792005
  0
LINE
  5
2CF
330
1F
100
AcDbEntity
  8
0
  6
Continuous
 62
     7
370
    25
100
AcDbLine
 10
369.919370243
 20
382.2176006953
 30
0.0
 11
368.717288715
 21
382.9115475903
 31
0.0
  0
ARC
  5
2D0
330
1F
100
AcDbEntity
  8
0
  6
Continuous
 62
     7
370
    25
100
AcDbCircle
 10
368.2223139682
 20
381.9562498308
 30
0.0
 40
1.075915335538574
100
AcDbArc
 50
62.6096722366
 51
117.3903277634
  0
LINE
  5
2D1
330
1F
100
AcDbEntity
  8
0
  6
Continuous
 62
     7
370
    25
100
AcDbLine
 10
367.7273392213
 20
382.9115475903
 30
0.0
 11
367.5859178651
 21
382.8299067791
 31
0.0
  0
LINE
  5
2D2
330
1F
100
AcDbEntity
  8
0
  6
Continuous
 62
     7
370
    25
100
AcDbLine
 10
367.4444965088
 20
382.1767802897
 30
0.0
 11
368.6465780369
 21
381.4828333946
 31
0.0
  0
LWPOLYLINE
  5
2D3
330
1F
100
AcDbEntity
  8
0
  6
Continuous
 62
     7
370
    25
100
AcDbPolyline
 90
        9
 70
   128
 43
0.0
 10
367.4444965088
 20
382.9115475903
 10
367.3325699608
 20
382.8328154218
 10
367.2494010327
 20
382.7429905388
 10
367.1981858596
 20
382.6455248611
 10
367.1808926119
 20
382.54416394
 10
367.1981858596
 20
382.4428030189
 10
367.2494010327
 20
382.3453373412
 10
367.3325699608
 20
382.2555124581
 10
367.4444965088
 20
382.1767802897
  0
LINE
  5
2D4
330
1F
100
AcDbEntity
  8
0
  6
Continuous
 62
     7
370
    25
100
AcDbLine
 10
367.5859178651
 20
382.9931884015
 30
0.0
 11
367.4444965088
 21
382.9115475903
 31
0.0
  0
ARC
  5
2D5
330
1F
100
AcDbEntity
  8
0
  6
Continuous
 62
     7
370
    25
100
AcDbCircle
 10
368.2223139682
 20
381.764948425
 30
0.0
 40
1.383319717120101
100
AcDbArc
 50
62.6096722366
 51
117.3903277634
  0
LINE
  5
2D6
330
1F
100
AcDbEntity
  8
0
  6
Continuous
 62
     7
370
    25
100
AcDbLine
 10
370.0607915992
 20
382.2992415064
 30
0.0
 11
368.8587100712
 21
382.9931884015
 31
0.0
  0
LWPOLYLINE
  5
2D7
330
1F
100
AcDbEntity
  8
0
  6
Continuous
 62
     7
370
    25
100
AcDbPolyline
 90
        9
 70
   128
 43
0.0
 10
370.0607915992
 20
381.5644742058
 10
370.1727181472
 20
381.6432063743
 10
370.2558870754
 20
381.7330312573
 10
370.3071022485
 20
381.830496935
 10
370.3243954962
 20
381.9318578561
 10
370.3071022485
 20
382.0332187772
 10
370.2558870754
 20
382.1306844549
 10
370.1727181472
 20
382.220509338
 10
370.0607915992
 20
382.2992415064
  0
LINE
  5
2D8
330
1F
100
AcDbEntity
  8
0
  6
Continuous
 62
     7
370
    25
100
AcDbLine
 10
369.919370243
 20
381.4828333946
 30
0.0
 11
370.0607915992
 21
381.5644742058
 31
0.0
  0
ARC
  5
2D9
330
1F
100
AcDbEntity
  8
0
  6
Continuous
 62
     7
370
    25
100
AcDbCircle
 10
369.2829741399
 20
382.7110733711
 30
0.0
 40
1.38331971712063
100
AcDbArc
 50
242.6096722366
 51
297.3903277634
  0
LINE
  5
2DA
330
1F
100
AcDbEntity
  8
0
  6
Continuous
 62
     7
370
    25
100
AcDbLine
 10
371.1568071101
 20
357.5008451098
 30
0.0
 11
325.9019731141
 21
383.6259046881
 31
0.0
  0
LWPOLYLINE
  5
2DB
330
1F
100
AcDbEntity
  8
0
  6
Continuous
 62
     7
370
    25
100
AcDbPolyline
 90
        9
 70
   128
 43
0.0
 10
357.4742908941
 20
375.0332093112
 10
357.5862174421
 20
374.9544771427
 10
357.6693863703
 20
374.8646522597
 10
357.7206015434
 20
374.767186582
 10
357.7378947911
 20
374.6658256609
 10
357.7206015434
 20
374.5644647398
 10
357.6693863703
 20
374.4669990621
 10
357.5862174421
 20
374.377174179
 10
357.4742908941
 20
374.2984420106
  0
LWPOLYLINE
  5
2DC
330
1F
100
AcDbEntity
  8
0
  6
Continuous
 62
     7
370
    25
100
AcDbPolyline
 90
        9
 70
   128
 43
0.0
 10
354.8579958037
 20
374.9107480944
 10
354.7460692557
 20
374.9894802629
 10
354.6629003275
 20
375.079305146
 10
354.6116851544
 20
375.1767708237
 10
354.5943919068
 20
375.2781317448
 10
354.6116851544
 20
375.3794926658
 10
354.6629003275
 20
375.4769583436
 10
354.7460692557
 20
375.5667832266
 10
354.8579958037
 20
375.6455153951
  0
LWPOLYLINE
  5
2DD
330
1F
100
AcDbEntity
  8
0
  6
Continuous
 62
     7
370
    25
100
AcDbPolyline
 90
        9
 70
   128
 43
0.0
 10
370.0607915992
 20
381.5644742058
 10
370.1727181472
 20
381.6432063743
 10
370.2558870754
 20
381.7330312573
 10
370.3071022485
 20
381.830496935
 10
370.3243954962
 20
381.9318578561
 10
370.3071022485
 20
382.0332187772
 10
370.2558870754
 20
382.1306844549
 10
370.1727181472
 20
382.220509338
 10
370.0607915992
 20
382.2992415064
  0
LWPOLYLINE
  5
2DE
330
1F
100
AcDbEntity
  8
0
  6
Continuous
 62
     7
370
    25
100
AcDbPolyline
 90
        9
 70
   128
 43
0.0
 10
367.4444965088
 20
382.1767802897
 10
367.3325699608
 20
382.2555124581
 10
367.2494010327
 20
382.3453373412
 10
367.1981858596
 20
382.4428030189
 10
367.1808926119
 20
382.54416394
 10
367.1981858596
 20
382.6455248611
 10
367.2494010327
 20
382.7429905388
 10
367.3325699608
 20
382.8328154218
 10
367.4444965088
 20
382.9115475903
  0
LINE
  5
2DF
330
1F
100
AcDbEntity
  8
0
  6
Continuous
 62
     7
370
    25
100
AcDbLine
 10
325.9019731141
 20
383.6259046881
 30
0.0
 11
353.7619802929
 21
399.7091444911
 31
0.0
  0
LINE
  5
2E0
330
1F
100
AcDbEntity
  8
0
  6
Continuous
 62
     7
370
    25
100
AcDbLine
 10
353.7619802929
 20
399.7091444911
 30
0.0
 11
399.0168142888
 21
373.5840849127
 31
0.0
  0
LINE
  5
2E1
330
1F
100
AcDbEntity
  8
0
  6
Continuous
 62
     7
370
    25
100
AcDbLine
 10
399.0168142888
 20
373.5840849127
 30
0.0
 11
371.1568071101
 21
357.5008451098
 31
0.0
  0
LINE
  5
2E2
330
1F
100
AcDbEntity
  8
0
  6
Continuous
 62
     7
370
    25
100
AcDbLine
 10
371.1568071101
 20
357.5046234331
 30
0.0
 11
325.9085180713
 21
383.6259046881
 31
0.0
  0
LINE
  5
2E3
330
1F
100
AcDbEntity
  8
0
  6
Continuous
 62
     7
370
    25
100
AcDbLine
 10
399.0102693317
 20
373.5840849127
 30
0.0
 11
371.1568071101
 21
357.5046234331
 31
0.0
  0
LINE
  5
2E4
330
1F
100
AcDbEntity
  8
0
  6
Continuous
 62
     7
370
    25
100
AcDbLine
 10
353.7619802929
 20
399.7053661677
 30
0.0
 11
399.0102693317
 21
373.5840849127
 31
0.0
  0
LINE
  5
2E5
330
1F
100
AcDbEntity
  8
0
  6
Continuous
 62
     7
370
    25
100
AcDbLine
 10
325.9085180713
 20
383.6259046881
 30
0.0
 11
353.7619802929
 21
399.7053661677
 31
0.0
  0
LINE
  5
2E6
330
1F
100
AcDbEntity
  8
0
  6
Continuous
 62
     7
370
    25
100
AcDbLine
 10
399.4410783575
 20
373.5840849127
 30
0.0
 11
371.1568071101
 21
357.2559226763
 31
0.0
  0
LINE
  5
2E7
330
1F
100
AcDbEntity
  8
0
  6
Continuous
 62
     7
370
    25
100
AcDbLine
 10
371.1568071101
 20
357.2559226763
 30
0.0
 11
325.4777090454
 21
383.6259046881
 31
0.0
  0
LINE
  5
2E8
330
1F
100
AcDbEntity
  8
0
  6
Continuous
 62
     7
370
    25
100
AcDbLine
 10
325.4777090454
 20
383.6259046881
 30
0.0
 11
353.7619802929
 21
399.9540669246
 31
0.0
  0
LINE
  5
2E9
330
1F
100
AcDbEntity
  8
0
  6
Continuous
 62
     7
370
    25
100
AcDbLine
 10
353.7619802929
 20
399.9540669246
 30
0.0
 11
399.4410783575
 21
373.5840849127
 31
0.0
  0
LINE
  5
2EA
330
1F
100
AcDbEntity
  8
0
  6
Continuous
 62
     7
370
    25
100
AcDbLine
 10
399.4108096948
 20
373.4849703745
 30
0.0
 11
399.4410783575
 21
373.5840849127
 31
0.0
  0
LINE
  5
2EB
330
1F
100
AcDbEntity
  8
0
  6
Continuous
 62
     7
370
    25
100
AcDbLine
 10
371.1568071101
 20
357.1742818651
 30
0.0
 11
371.1568071101
 21
357.2559226763
 31
0.0
  0
LINE
  5
2EC
330
1F
100
AcDbEntity
  8
0
  6
Continuous
 62
     7
370
    25
100
AcDbLine
 10
325.4928433768
 20
383.576347419
 30
0.0
 11
325.4777090454
 21
383.6259046881
 31
0.0
  0
LINE
  5
2ED
330
1F
100
AcDbEntity
  8
0
  6
Continuous
 62
     7
370
    25
100
AcDbLine
 10
446.7683621015
 20
361.1680941571
 30
0.0
 11
446.7211872615
 21
363.7415065154
 31
0.0
  0
LINE
  5
2EE
330
1F
100
AcDbEntity
  8
0
  6
Continuous
 62
     7
370
    25
100
AcDbLine
 10
446.7211872615
 20
363.7415065154
 30
0.0
 11
449.5496143862
 21
362.1086902917
 31
0.0
  0
LINE
  5
2EF
330
1F
100
AcDbEntity
  8
0
  6
Continuous
 62
     7
370
    25
100
AcDbLine
 10
449.5967892262
 20
359.5352779334
 30
0.0
 11
449.5496143862
 21
362.1086902917
 31
0.0
  0
LWPOLYLINE
  5
2F0
330
1F
100
AcDbEntity
  8
0
  6
Continuous
 62
     7
370
    25
100
AcDbPolyline
 90
       12
 70
   128
 43
0.0
 10
447.6346877922
 20
361.615625545
 10
447.5347803668
 20
361.6894887814
 10
447.4423669974
 20
361.7900901582
 10
447.3649344657
 20
361.9092795501
 10
447.3087558947
 20
362.0374009414
 10
447.2783825384
 20
362.164074699
 10
447.2762750652
 20
362.2790384684
 10
447.3026042103
 20
362.3729785687
 10
447.3552369427
 20
362.4382845316
 10
447.4299092717
 20
362.4696656565
 10
447.5205716891
 20
362.4645796312
 10
447.6198792651
 20
362.4234384952
  0
LINE
  5
2F1
330
1F
100
AcDbEntity
  8
0
  6
Continuous
 62
     7
370
    25
100
AcDbLine
 10
448.695347964
 20
361.0033194611
 30
0.0
 11
447.6346877922
 21
361.615625545
 31
0.0
  0
LWPOLYLINE
  5
2F2
330
1F
100
AcDbEntity
  8
0
  6
Continuous
 62
     7
370
    25
100
AcDbPolyline
 90
       12
 70
   128
 43
0.0
 10
448.6805394369
 20
361.8111324114
 10
448.7804468623
 20
361.7372691749
 10
448.8728602317
 20
361.6366677981
 10
448.9502927634
 20
361.5174784062
 10
449.0064713343
 20
361.3893570149
 10
449.0368446907
 20
361.2626832573
 10
449.0389521639
 20
361.147719488
 10
449.0126230188
 20
361.0537793877
 10
448.9599902864
 20
360.9884734247
 10
448.8853179574
 20
360.9570922999
 10
448.79465554
 20
360.9621783252
 10
448.695347964
 20
361.0033194611
  0
LINE
  5
2F3
330
1F
100
AcDbEntity
  8
0
  6
Continuous
 62
     7
370
    25
100
AcDbLine
 10
447.6198792651
 20
362.4234384952
 30
0.0
 11
448.6805394369
 21
361.8111324114
 31
0.0
  0
LINE
  5
2F4
330
1F
100
AcDbEntity
  8
0
  6
Continuous
 62
     7
370
    25
100
AcDbLine
 10
449.8323950666
 20
362.27877624
 30
0.0
 11
449.5496143862
 21
362.1086902917
 31
0.0
  0
LINE
  5
2F5
330
1F
100
AcDbEntity
  8
0
  6
Continuous
 62
     7
370
    25
100
AcDbLine
 10
449.8795699066
 20
359.7053638817
 30
0.0
 11
449.8323950666
 21
362.27877624
 31
0.0
  0
LINE
  5
2F6
330
1F
100
AcDbEntity
  8
0
  6
Continuous
 62
     7
370
    25
100
AcDbLine
 10
447.0039679419
 20
363.9115924636
 30
0.0
 11
446.7211872615
 21
363.7415065154
 31
0.0
  0
LINE
  5
2F7
330
1F
100
AcDbEntity
  8
0
  6
Continuous
 62
     7
370
    25
100
AcDbLine
 10
447.0039679419
 20
363.9115924636
 30
0.0
 11
449.8323950666
 21
362.27877624
 31
0.0
  0
LINE
  5
2F8
330
1F
100
AcDbEntity
  8
0
  6
Continuous
 62
     7
370
    25
100
AcDbLine
 10
449.0385548592
 20
361.1444235648
 30
0.0
 11
448.9781286444
 21
361.1734054093
 31
0.0
  0
ARC
  5
2F9
330
1F
100
AcDbEntity
  8
0
  6
Continuous
 62
     7
370
    25
100
AcDbCircle
 10
447.1078091518
 20
361.1391712178
 30
0.0
 40
0.3406770265014862
100
AcDbArc
 50
175.1298166804
 51
235.1747191514
  0
ARC
  5
2FA
330
1F
100
AcDbEntity
  8
0
  6
Continuous
 62
     7
370
    25
100
AcDbCircle
 10
449.9251199582
 20
359.5039470243
 30
0.0
 40
0.3298222178430517
100
AcDbArc
 50
174.5490643704
 51
242.0696319055
  0
ARC
  5
2FB
330
1F
100
AcDbEntity
  8
0
  6
Continuous
 62
     7
370
    25
100
AcDbCircle
 10
450.0202830775
 20
359.6919363492
 30
0.0
 40
0.1413523790753787
100
AcDbArc
 50
174.5490643702
 51
242.0696319056
  0
LINE
  5
2FC
330
1F
100
AcDbEntity
  8
0
  6
Continuous
 62
     7
370
    25
100
AcDbLine
 10
448.9781286444
 20
361.1734054093
 30
0.0
 11
447.9174684726
 21
361.7857114932
 31
0.0
  0
LINE
  5
2FD
330
1F
100
AcDbEntity
  8
0
  6
Continuous
 62
     7
370
    25
100
AcDbLine
 10
451.0085840084
 20
359.1382231539
 30
0.0
 11
449.9540738825
 21
359.5670490497
 31
0.0
  0
LINE
  5
2FE
330
1F
100
AcDbEntity
  8
0
  6
Continuous
 62
     7
370
    25
100
AcDbLine
 10
450.8251419625
 20
358.7837174297
 30
0.0
 11
449.7706318366
 21
359.2125433255
 31
0.0
  0
ARC
  5
2FF
330
1F
100
AcDbEntity
  8
0
  6
Continuous
 62
     7
370
    25
100
AcDbCircle
 10
448.2852932476
 20
362.4127090312
 30
0.0
 40
0.7269257030303289
100
AcDbArc
 50
176.8684214508
 51
239.6022091409
  0
ARC
  5
300
330
1F
100
AcDbEntity
  8
0
  6
Continuous
 62
     7
370
    25
100
AcDbCircle
 10
450.8540958869
 20
358.8468194551
 30
0.0
 40
0.3298222178430251
100
AcDbArc
 50
354.5490643704
 51
62.0696319055
  0
ARC
  5
301
330
1F
100
AcDbEntity
  8
0
  6
Continuous
 62
     7
370
    25
100
AcDbCircle
 10
450.7589327676
 20
358.6588301302
 30
0.0
 40
0.1413523790756545
100
AcDbArc
 50
354.5490643704
 51
62.0696319055
  0
LINE
  5
302
330
1F
100
AcDbEntity
  8
0
  6
Continuous
 62
     7
370
    25
100
AcDbLine
 10
448.1802877649
 20
354.3284501092
 30
0.0
 11
451.0087148897
 21
352.6956338855
 31
0.0
  0
LINE
  5
303
330
1F
100
AcDbEntity
  8
0
  6
Continuous
 62
     7
370
    25
100
AcDbLine
 10
448.1802877649
 20
354.3284501092
 30
0.0
 11
448.0728341649
 21
360.1901005618
 31
0.0
  0
LINE
  5
304
330
1F
100
AcDbEntity
  8
0
  6
Continuous
 62
     7
370
    25
100
AcDbLine
 10
451.0087148897
 20
352.6956338855
 30
0.0
 11
450.8996459384
 21
358.6454025978
 31
0.0
  0
LWPOLYLINE
  5
305
330
1F
100
AcDbEntity
  8
0
  6
Continuous
 62
     7
370
    25
100
AcDbPolyline
 90
       12
 70
   128
 43
0.0
 10
449.1994840608
 20
355.978020286
 10
449.2117194352
 20
356.0835463237
 10
449.2516063654
 20
356.163988137
 10
449.3159134495
 20
356.2128288085
 10
449.39943091
 20
356.2261115576
 10
449.4953926589
 20
356.2027602947
 10
449.5960244461
 20
356.1446668006
 10
449.6931736827
 20
356.0565374644
 10
449.7789699152
 20
355.9455120009
 10
449.8464624431
 20
355.8205850329
 10
449.8901834233
 20
355.6918774003
 10
449.906590842
 20
355.5698162301
  0
LINE
  5
306
330
1F
100
AcDbEntity
  8
0
  6
Continuous
 62
     7
370
    25
100
AcDbLine
 10
449.2216968514
 20
354.7663008606
 30
0.0
 11
449.1994840608
 21
355.978020286
 31
0.0
  0
LWPOLYLINE
  5
307
330
1F
100
AcDbEntity
  8
0
  6
Continuous
 62
     7
370
    25
100
AcDbPolyline
 90
       12
 70
   128
 43
0.0
 10
449.9288036326
 20
354.3580968047
 10
449.9165682582
 20
354.252570767
 10
449.876681328
 20
354.1721289537
 10
449.8123742439
 20
354.1232882822
 10
449.7288567834
 20
354.1100055332
 10
449.6328950345
 20
354.133356796
 10
449.5322632473
 20
354.1914502902
 10
449.4351140107
 20
354.2795796264
 10
449.3493177782
 20
354.3906050898
 10
449.2818252503
 20
354.5155320579
 10
449.2381042701
 20
354.6442396904
 10
449.2216968514
 20
354.7663008606
  0
LINE
  5
308
330
1F
100
AcDbEntity
  8
0
  6
Continuous
 62
     7
370
    25
100
AcDbLine
 10
449.906590842
 20
355.5698162301
 30
0.0
 11
449.9288036326
 21
354.3580968047
 31
0.0
  0
LINE
  5
309
330
1F
100
AcDbEntity
  8
0
  6
Continuous
 62
     7
370
    25
100
AcDbLine
 10
451.0087148897
 20
352.6956338855
 30
0.0
 11
451.29149557
 21
352.8657198337
 31
0.0
  0
LINE
  5
30A
330
1F
100
AcDbEntity
  8
0
  6
Continuous
 62
     7
370
    25
100
AcDbLine
 10
451.29149557
 20
352.8657198337
 30
0.0
 11
451.1824266188
 21
358.815488546
 31
0.0
  0
LINE
  5
30B
330
1F
100
AcDbEntity
  8
0
  6
Continuous
 62
     7
370
    25
100
AcDbLine
 10
449.4822647412
 20
356.1481062342
 30
0.0
 11
449.485206973
 21
356.2068065777
 31
0.0
  0
LINE
  5
30C
330
1F
100
AcDbEntity
  8
0
  6
Continuous
 62
     7
370
    25
100
AcDbLine
 10
449.5044775318
 20
354.9363868088
 30
0.0
 11
449.4822647412
 21
356.1481062342
 31
0.0
  0
ARC
  5
30D
330
1F
100
AcDbEntity
  8
0
  6
Continuous
 62
     7
370
    25
100
AcDbCircle
 10
450.2498804967
 20
354.9716153667
 30
0.0
 40
0.7462349705615794
100
AcDbArc
 50
182.7058476802
 51
244.2652704469
  0
LINE
  5
30E
330
1F
100
AcDbEntity
  8
0
  6
Continuous
 62
     7
370
    25
100
AcDbLine
 10
359.7418076171
 20
310.2705871308
 30
0.0
 11
356.9133804923
 21
311.9034033544
 31
0.0
  0
LINE
  5
30F
330
1F
100
AcDbEntity
  8
0
  6
Continuous
 62
     7
370
    25
100
AcDbLine
 10
359.6946327771
 20
307.6427078615
 30
0.0
 11
359.7418076171
 21
310.2705871308
 31
0.0
  0
LINE
  5
310
330
1F
100
AcDbEntity
  8
0
  6
Continuous
 62
     7
370
    25
100
AcDbLine
 10
356.8662056523
 20
309.2755240852
 30
0.0
 11
356.9133804923
 21
311.9034033544
 31
0.0
  0
LINE
  5
311
330
1F
100
AcDbEntity
  8
0
  6
Continuous
 62
     7
370
    25
100
AcDbLine
 10
357.7676469146
 20
309.7433272611
 30
0.0
 11
358.8283070864
 21
309.1310211772
 31
0.0
  0
LWPOLYLINE
  5
312
330
1F
100
AcDbEntity
  8
0
  6
Continuous
 62
     7
370
    25
100
AcDbPolyline
 90
       12
 70
   128
 43
0.0
 10
358.8283070864
 20
309.1310211772
 10
358.9282145118
 20
309.0902263269
 10
359.0206278811
 20
309.0861511047
 10
359.0980604129
 20
309.1191256607
 10
359.1542389838
 20
309.1864785926
 10
359.1846123402
 20
309.2827533664
 10
359.1867198133
 20
309.4001503725
 10
359.1603906683
 20
309.5291588036
 10
359.1077579358
 20
309.6593271639
 10
359.0330856069
 20
309.7801099869
 10
358.9424231895
 20
309.8817221668
 10
358.8431156135
 20
309.9559316889
  0
LINE
  5
313
330
1F
100
AcDbEntity
  8
0
  6
Continuous
 62
     7
370
    25
100
AcDbLine
 10
358.8431156135
 20
309.9559316889
 30
0.0
 11
357.7824554417
 21
310.5682377728
 31
0.0
  0
LWPOLYLINE
  5
314
330
1F
100
AcDbEntity
  8
0
  6
Continuous
 62
     7
370
    25
100
AcDbPolyline
 90
       12
 70
   128
 43
0.0
 10
357.7824554417
 20
310.5682377728
 10
357.6825480163
 20
310.609032623
 10
357.5901346469
 20
310.6131078453
 10
357.5127021152
 20
310.5801332893
 10
357.4565235442
 20
310.5127803573
 10
357.4261501879
 20
310.4165055836
 10
357.4240427147
 20
310.2991085775
 10
357.4503718597
 20
310.1701001464
 10
357.5030045922
 20
310.0399317861
 10
357.5776769212
 20
309.919148963
 10
357.6683393386
 20
309.8175367832
 10
357.7676469146
 20
309.7433272611
  0
LINE
  5
315
330
1F
100
AcDbEntity
  8
0
  6
Continuous
 62
     7
370
    25
100
AcDbLine
 10
359.7418076171
 20
310.2705871308
 30
0.0
 11
360.0245882975
 21
310.4269928066
 31
0.0
  0
LINE
  5
316
330
1F
100
AcDbEntity
  8
0
  6
Continuous
 62
     7
370
    25
100
AcDbLine
 10
359.9774134575
 20
307.7991135373
 30
0.0
 11
360.0245882975
 21
310.4269928066
 31
0.0
  0
LINE
  5
317
330
1F
100
AcDbEntity
  8
0
  6
Continuous
 62
     7
370
    25
100
AcDbLine
 10
360.0245882975
 20
310.4269928066
 30
0.0
 11
357.1961611727
 21
312.0598090302
 31
0.0
  0
LINE
  5
318
330
1F
100
AcDbEntity
  8
0
  6
Continuous
 62
     7
370
    25
100
AcDbLine
 10
356.9133804923
 20
311.9034033544
 30
0.0
 11
357.1961611727
 21
312.0598090302
 31
0.0
  0
LINE
  5
319
330
1F
100
AcDbEntity
  8
0
  6
Continuous
 62
     7
370
    25
100
AcDbLine
 10
359.1110877668
 20
309.287426853
 30
0.0
 11
359.1794775565
 21
309.2557847153
 31
0.0
  0
LINE
  5
31A
330
1F
100
AcDbEntity
  8
0
  6
Continuous
 62
     7
370
    25
100
AcDbLine
 10
358.5656186753
 20
305.7720351983
 30
0.0
 11
359.6201288012
 21
307.41837257
 31
0.0
  0
LINE
  5
31B
330
1F
100
AcDbEntity
  8
0
  6
Continuous
 62
     7
370
    25
100
AcDbLine
 10
355.7371915505
 20
307.404851422
 30
0.0
 11
356.7917016765
 21
309.0511887937
 31
0.0
  0
LINE
  5
31C
330
1F
100
AcDbEntity
  8
0
  6
Continuous
 62
     7
370
    25
100
AcDbLine
 10
358.7490607212
 20
305.6293271521
 30
0.0
 11
359.8035708471
 21
307.2756645238
 31
0.0
  0
ARC
  5
31D
330
1F
100
AcDbEntity
  8
0
  6
Continuous
 62
     7
370
    25
100
AcDbCircle
 10
359.4331535958
 20
305.1933263102
 30
0.0
 40
1.042842661020848
100
AcDbArc
 50
146.2938284441
 51
176.9624936757
  0
ARC
  5
31E
330
1F
100
AcDbEntity
  8
0
  6
Continuous
 62
     7
370
    25
100
AcDbCircle
 10
356.6047264711
 20
306.8261425338
 30
0.0
 40
1.042842661020797
100
AcDbArc
 50
146.2938284441
 51
176.9624936757
  0
ARC
  5
31F
330
1F
100
AcDbEntity
  8
0
  6
Continuous
 62
     7
370
    25
100
AcDbCircle
 10
359.1208614014
 20
305.3813090572
 30
0.0
 40
0.4469325690098042
100
AcDbArc
 50
146.2938284441
 51
176.9624936757
  0
ARC
  5
320
330
1F
100
AcDbEntity
  8
0
  6
Continuous
 62
     7
370
    25
100
AcDbCircle
 10
359.248328121
 20
307.666390665
 30
0.0
 40
0.446932569008324
100
AcDbArc
 50
326.2938284441
 51
356.9624936757
  0
ARC
  5
321
330
1F
100
AcDbEntity
  8
0
  6
Continuous
 62
     7
370
    25
100
AcDbCircle
 10
358.9360359265
 20
307.854373412
 30
0.0
 40
1.042842661018934
100
AcDbArc
 50
326.2938284441
 51
356.9624936758
  0
ARC
  5
322
330
1F
100
AcDbEntity
  8
0
  6
Continuous
 62
     7
370
    25
100
AcDbCircle
 10
356.4199009962
 20
309.2992068886
 30
0.0
 40
0.4469325690092933
100
AcDbArc
 50
326.2938284441
 51
356.9624936757
  0
LINE
  5
323
330
1F
100
AcDbEntity
  8
0
  6
Continuous
 62
     7
370
    25
100
AcDbLine
 10
358.050427595
 20
309.8997329369
 30
0.0
 11
359.1110877668
 21
309.287426853
 31
0.0
  0
LINE
  5
324
330
1F
100
AcDbEntity
  8
0
  6
Continuous
 62
     7
370
    25
100
AcDbLine
 10
358.3875036969
 20
305.0105934871
 30
0.0
 11
358.3917760649
 21
305.2485861848
 31
0.0
  0
LINE
  5
325
330
1F
100
AcDbEntity
  8
0
  6
Continuous
 62
     7
370
    25
100
AcDbLine
 10
358.6646049544
 20
304.8506263361
 30
0.0
 11
358.6745567453
 21
305.4049918606
 31
0.0
  0
LINE
  5
326
330
1F
100
AcDbEntity
  8
0
  6
Continuous
 62
     7
370
    25
100
AcDbLine
 10
355.5590765721
 20
306.6434097107
 30
0.0
 11
355.5633489402
 21
306.8814024084
 31
0.0
  0
ARC
  5
327
330
1F
100
AcDbEntity
  8
0
  6
Continuous
 62
     7
370
    25
100
AcDbCircle
 10
358.4238820121
 20
310.5100168348
 30
0.0
 40
0.7154821016565519
100
AcDbArc
 50
172.7847128291
 51
238.5360540188
  0
ARC
  5
328
330
1F
100
AcDbEntity
  8
0
  6
Continuous
 62
     7
370
    25
100
AcDbCircle
 10
318.7578117226
 20
352.4595250193
 30
0.0
 40
0.3056307217840755
100
AcDbArc
 50
290.7834207995
 51
69.2165792005
  0
LINE
  5
329
330
1F
100
AcDbEntity
  8
0
  6
Continuous
 62
     7
370
    25
100
AcDbLine
 10
318.8662606413
 20
352.7452678585
 30
0.0
 11
317.6641791133
 21
353.4392147535
 31
0.0
  0
ARC
  5
32A
330
1F
100
AcDbEntity
  8
0
  6
Continuous
 62
     7
370
    25
100
AcDbCircle
 10
317.1692043665
 20
352.483916994
 30
0.0
 40
1.075915335538649
100
AcDbArc
 50
62.6096722366
 51
117.3903277634
  0
LINE
  5
32B
330
1F
100
AcDbEntity
  8
0
  6
Continuous
 62
     7
370
    25
100
AcDbLine
 10
316.6742296197
 20
353.4392147535
 30
0.0
 11
316.5328082634
 21
353.3575739423
 31
0.0
  0
ARC
  5
32C
330
1F
100
AcDbEntity
  8
0
  6
Continuous
 62
     7
370
    25
100
AcDbCircle
 10
316.6412571822
 20
353.0718311032
 30
0.0
 40
0.3056307217840224
100
AcDbArc
 50
110.7834207995
 51
249.2165792005
  0
LINE
  5
32D
330
1F
100
AcDbEntity
  8
0
  6
Continuous
 62
     7
370
    25
100
AcDbLine
 10
316.5328082634
 20
352.786088264
 30
0.0
 11
317.7348897914
 21
352.092141369
 31
0.0
  0
ARC
  5
32E
330
1F
100
AcDbEntity
  8
0
  6
Continuous
 62
     7
370
    25
100
AcDbCircle
 10
318.2298645383
 20
353.0474391285
 30
0.0
 40
1.075915335538322
100
AcDbArc
 50
242.6096722366
 51
297.3903277634
  0
LINE
  5
32F
330
1F
100
AcDbEntity
  8
0
  6
Continuous
 62
     7
370
    25
100
AcDbLine
 10
318.7248392851
 20
352.092141369
 30
0.0
 11
318.8662606413
 21
352.1737821802
 31
0.0
  0
LINE
  5
330
330
1F
100
AcDbEntity
  8
0
  6
Continuous
 62
     7
370
    25
100
AcDbLine
 10
319.0076819976
 20
352.8269086696
 30
0.0
 11
317.8056004696
 21
353.5208555647
 31
0.0
  0
LWPOLYLINE
  5
331
330
1F
100
AcDbEntity
  8
0
  6
Continuous
 62
     7
370
    25
100
AcDbPolyline
 90
        9
 70
   128
 43
0.0
 10
319.0076819976
 20
352.092141369
 10
319.1196085456
 20
352.1708735375
 10
319.2027774738
 20
352.2606984205
 10
319.2539926469
 20
352.3581640982
 10
319.2712858945
 20
352.4595250193
 10
319.2539926469
 20
352.5608859404
 10
319.2027774738
 20
352.6583516181
 10
319.1196085456
 20
352.7481765012
 10
319.0076819976
 20
352.8269086696
  0
LINE
  5
332
330
1F
100
AcDbEntity
  8
0
  6
Continuous
 62
     7
370
    25
100
AcDbLine
 10
318.8662606413
 20
352.0105005578
 30
0.0
 11
319.0076819976
 21
352.092141369
 31
0.0
  0
ARC
  5
333
330
1F
100
AcDbEntity
  8
0
  6
Continuous
 62
     7
370
    25
100
AcDbCircle
 10
318.2298645383
 20
353.2387405343
 30
0.0
 40
1.383319717120605
100
AcDbArc
 50
242.6096722366
 51
297.3903277634
  0
LINE
  5
334
330
1F
100
AcDbEntity
  8
0
  6
Continuous
 62
     7
370
    25
100
AcDbLine
 10
316.3913869072
 20
352.7044474529
 30
0.0
 11
317.5934684352
 21
352.0105005578
 31
0.0
  0
LWPOLYLINE
  5
335
330
1F
100
AcDbEntity
  8
0
  6
Continuous
 62
     7
370
    25
100
AcDbPolyline
 90
        9
 70
   128
 43
0.0
 10
316.3913869072
 20
353.4392147535
 10
316.2794603592
 20
353.360482585
 10
316.196291431
 20
353.270657702
 10
316.1450762579
 20
353.1731920243
 10
316.1277830102
 20
353.0718311032
 10
316.1450762579
 20
352.9704701821
 10
316.196291431
 20
352.8730045044
 10
316.2794603592
 20
352.7831796213
 10
316.3913869072
 20
352.7044474529
  0
LINE
  5
336
330
1F
100
AcDbEntity
  8
0
  6
Continuous
 62
     7
370
    25
100
AcDbLine
 10
316.5328082634
 20
353.5208555647
 30
0.0
 11
316.3913869072
 21
353.4392147535
 31
0.0
  0
ARC
  5
337
330
1F
100
AcDbEntity
  8
0
  6
Continuous
 62
     7
370
    25
100
AcDbCircle
 10
317.1692043665
 20
352.2926155882
 30
0.0
 40
1.383319717120024
100
AcDbArc
 50
62.6096722366
 51
117.3903277634
  0
ARC
  5
338
330
1F
100
AcDbEntity
  8
0
  6
Continuous
 62
     7
370
    25
100
AcDbCircle
 10
340.9987028925
 20
366.3829111346
 30
0.0
 40
1.383319717120503
100
AcDbArc
 50
242.6096722366
 51
297.3903277634
  0
ARC
  5
339
330
1F
100
AcDbEntity
  8
0
  6
Continuous
 62
     7
370
    25
100
AcDbCircle
 10
339.4100955364
 20
366.2160017035
 30
0.0
 40
0.3056307217840022
100
AcDbArc
 50
110.7834207995
 51
249.2165792005
  0
LINE
  5
33A
330
1F
100
AcDbEntity
  8
0
  6
Continuous
 62
     7
370
    25
100
AcDbLine
 10
339.3016466176
 20
365.9302588644
 30
0.0
 11
340.5037281456
 21
365.2363119693
 31
0.0
  0
ARC
  5
33B
330
1F
100
AcDbEntity
  8
0
  6
Continuous
 62
     7
370
    25
100
AcDbCircle
 10
340.9987028925
 20
366.1916097288
 30
0.0
 40
1.075915335537866
100
AcDbArc
 50
242.6096722366
 51
297.3903277634
  0
LINE
  5
33C
330
1F
100
AcDbEntity
  8
0
  6
Continuous
 62
     7
370
    25
100
AcDbLine
 10
341.4936776393
 20
365.2363119693
 30
0.0
 11
341.6350989955
 21
365.3179527805
 31
0.0
  0
ARC
  5
33D
330
1F
100
AcDbEntity
  8
0
  6
Continuous
 62
     7
370
    25
100
AcDbCircle
 10
341.5266500768
 20
365.6036956197
 30
0.0
 40
0.3056307217840224
100
AcDbArc
 50
290.7834207995
 51
69.2165792005
  0
LINE
  5
33E
330
1F
100
AcDbEntity
  8
0
  6
Continuous
 62
     7
370
    25
100
AcDbLine
 10
341.6350989955
 20
365.8894384588
 30
0.0
 11
340.4330174675
 21
366.5833853538
 31
0.0
  0
ARC
  5
33F
330
1F
100
AcDbEntity
  8
0
  6
Continuous
 62
     7
370
    25
100
AcDbCircle
 10
339.9380427207
 20
365.6280875944
 30
0.0
 40
1.075915335538094
100
AcDbArc
 50
62.6096722366
 51
117.3903277634
  0
LINE
  5
340
330
1F
100
AcDbEntity
  8
0
  6
Continuous
 62
     7
370
    25
100
AcDbLine
 10
339.4430679739
 20
366.5833853538
 30
0.0
 11
339.3016466176
 21
366.5017445427
 31
0.0
  0
LINE
  5
341
330
1F
100
AcDbEntity
  8
0
  6
Continuous
 62
     7
370
    25
100
AcDbLine
 10
339.1602252614
 20
365.8486180532
 30
0.0
 11
340.3623067894
 21
365.1546711582
 31
0.0
  0
LWPOLYLINE
  5
342
330
1F
100
AcDbEntity
  8
0
  6
Continuous
 62
     7
370
    25
100
AcDbPolyline
 90
        9
 70
   128
 43
0.0
 10
339.1602252614
 20
366.5833853538
 10
339.0482987134
 20
366.5046531854
 10
338.9651297852
 20
366.4148283023
 10
338.9139146121
 20
366.3173626246
 10
338.8966213645
 20
366.2160017035
 10
338.9139146121
 20
366.1146407824
 10
338.9651297852
 20
366.0171751047
 10
339.0482987134
 20
365.9273502217
 10
339.1602252614
 20
365.8486180532
  0
LINE
  5
343
330
1F
100
AcDbEntity
  8
0
  6
Continuous
 62
     7
370
    25
100
AcDbLine
 10
339.3016466176
 20
366.665026165
 30
0.0
 11
339.1602252614
 21
366.5833853538
 31
0.0
  0
ARC
  5
344
330
1F
100
AcDbEntity
  8
0
  6
Continuous
 62
     7
370
    25
100
AcDbCircle
 10
339.9380427207
 20
365.4367861886
 30
0.0
 40
1.383319717121134
100
AcDbArc
 50
62.6096722366
 51
117.3903277634
  0
LINE
  5
345
330
1F
100
AcDbEntity
  8
0
  6
Continuous
 62
     7
370
    25
100
AcDbLine
 10
341.7765203518
 20
365.97107927
 30
0.0
 11
340.5744388238
 21
366.665026165
 31
0.0
  0
LWPOLYLINE
  5
346
330
1F
100
AcDbEntity
  8
0
  6
Continuous
 62
     7
370
    25
100
AcDbPolyline
 90
        9
 70
   128
 43
0.0
 10
341.7765203518
 20
365.2363119693
 10
341.8884468998
 20
365.3150441378
 10
341.971615828
 20
365.4048690209
 10
342.0228310011
 20
365.5023346986
 10
342.0401242487
 20
365.6036956197
 10
342.0228310011
 20
365.7050565407
 10
341.971615828
 20
365.8025222185
 10
341.8884468998
 20
365.8923471015
 10
341.7765203518
 20
365.97107927
  0
LINE
  5
347
330
1F
100
AcDbEntity
  8
0
  6
Continuous
 62
     7
370
    25
100
AcDbLine
 10
341.6350989955
 20
365.1546711582
 30
0.0
 11
341.7765203518
 21
365.2363119693
 31
0.0
  0
ARC
  5
348
330
1F
100
AcDbEntity
  8
0
  6
Continuous
 62
     7
370
    25
100
AcDbCircle
 10
406.1609756804
 20
404.7504645816
 30
0.0
 40
0.3056307217841159
100
AcDbArc
 50
110.7834207995
 51
249.2165792005
  0
LINE
  5
349
330
1F
100
AcDbEntity
  8
0
  6
Continuous
 62
     7
370
    25
100
AcDbLine
 10
406.0525267616
 20
404.4647217424
 30
0.0
 11
407.2546082897
 21
403.7707748474
 31
0.0
  0
ARC
  5
34A
330
1F
100
AcDbEntity
  8
0
  6
Continuous
 62
     7
370
    25
100
AcDbCircle
 10
407.7495830365
 20
404.7260726068
 30
0.0
 40
1.075915335538675
100
AcDbArc
 50
242.6096722366
 51
297.3903277634
  0
LINE
  5
34B
330
1F
100
AcDbEntity
  8
0
  6
Continuous
 62
     7
370
    25
100
AcDbLine
 10
408.2445577833
 20
403.7707748474
 30
0.0
 11
408.3859791396
 21
403.8524156586
 31
0.0
  0
ARC
  5
34C
330
1F
100
AcDbEntity
  8
0
  6
Continuous
 62
     7
370
    25
100
AcDbCircle
 10
408.2775302208
 20
404.1381584977
 30
0.0
 40
0.3056307217840628
100
AcDbArc
 50
290.7834207995
 51
69.2165792005
  0
LINE
  5
34D
330
1F
100
AcDbEntity
  8
0
  6
Continuous
 62
     7
370
    25
100
AcDbLine
 10
408.3859791396
 20
404.4239013368
 30
0.0
 11
407.1838976115
 21
405.1178482319
 31
0.0
  0
ARC
  5
34E
330
1F
100
AcDbEntity
  8
0
  6
Continuous
 62
     7
370
    25
100
AcDbCircle
 10
406.6889228647
 20
404.1625504724
 30
0.0
 40
1.075915335537842
100
AcDbArc
 50
62.6096722366
 51
117.3903277634
  0
LINE
  5
34F
330
1F
100
AcDbEntity
  8
0
  6
Continuous
 62
     7
370
    25
100
AcDbLine
 10
406.1939481179
 20
405.1178482319
 30
0.0
 11
406.0525267616
 21
405.0362074207
 31
0.0
  0
LINE
  5
350
330
1F
100
AcDbEntity
  8
0
  6
Continuous
 62
     7
370
    25
100
AcDbLine
 10
405.9111054054
 20
404.3830809312
 30
0.0
 11
407.1131869334
 21
403.6891340362
 31
0.0
  0
LWPOLYLINE
  5
351
330
1F
100
AcDbEntity
  8
0
  6
Continuous
 62
     7
370
    25
100
AcDbPolyline
 90
        9
 70
   128
 43
0.0
 10
405.9111054054
 20
405.1178482319
 10
405.7991788574
 20
405.0391160634
 10
405.7160099292
 20
404.9492911804
 10
405.6647947561
 20
404.8518255026
 10
405.6475015085
 20
404.7504645816
 10
405.6647947561
 20
404.6491036605
 10
405.7160099292
 20
404.5516379827
 10
405.7991788574
 20
404.4618130997
 10
405.9111054054
 20
404.3830809312
  0
LINE
  5
352
330
1F
100
AcDbEntity
  8
0
  6
Continuous
 62
     7
370
    25
100
AcDbLine
 10
406.0525267616
 20
405.1994890431
 30
0.0
 11
405.9111054054
 21
405.1178482319
 31
0.0
  0
ARC
  5
353
330
1F
100
AcDbEntity
  8
0
  6
Continuous
 62
     7
370
    25
100
AcDbCircle
 10
406.6889228647
 20
403.9712490666
 30
0.0
 40
1.383319717120579
100
AcDbArc
 50
62.6096722366
 51
117.3903277634
  0
LINE
  5
354
330
1F
100
AcDbEntity
  8
0
  6
Continuous
 62
     7
370
    25
100
AcDbLine
 10
408.5274004958
 20
404.505542148
 30
0.0
 11
407.3253189678
 21
405.1994890431
 31
0.0
  0
LWPOLYLINE
  5
355
330
1F
100
AcDbEntity
  8
0
  6
Continuous
 62
     7
370
    25
100
AcDbPolyline
 90
        9
 70
   128
 43
0.0
 10
408.5274004958
 20
403.7707748474
 10
408.6393270438
 20
403.8495070158
 10
408.722495972
 20
403.9393318989
 10
408.7737111451
 20
404.0367975766
 10
408.7910043927
 20
404.1381584977
 10
408.7737111451
 20
404.2395194188
 10
408.722495972
 20
404.3369850965
 10
408.6393270438
 20
404.4268099795
 10
408.5274004958
 20
404.505542148
  0
LINE
  5
356
330
1F
100
AcDbEntity
  8
0
  6
Continuous
 62
     7
370
    25
100
AcDbLine
 10
408.3859791396
 20
403.6891340362
 30
0.0
 11
408.5274004958
 21
403.7707748474
 31
0.0
  0
ARC
  5
357
330
1F
100
AcDbEntity
  8
0
  6
Continuous
 62
     7
370
    25
100
AcDbCircle
 10
407.7495830365
 20
404.9173740127
 30
0.0
 40
1.383319717120706
100
AcDbArc
 50
242.6096722366
 51
297.3903277634
  0
ARC
  5
358
330
1F
100
AcDbEntity
  8
0
  6
Continuous
 62
     7
370
    25
100
AcDbCircle
 10
384.9807446823
 20
391.7732034123
 30
0.0
 40
1.383319717120275
100
AcDbArc
 50
242.6096722366
 51
297.3903277634
  0
ARC
  5
359
330
1F
100
AcDbEntity
  8
0
  6
Continuous
 62
     7
370
    25
100
AcDbCircle
 10
385.5086918666
 20
390.9939878973
 30
0.0
 40
0.3056307217839491
100
AcDbArc
 50
290.7834207995
 51
69.2165792005
  0
LINE
  5
35A
330
1F
100
AcDbEntity
  8
0
  6
Continuous
 62
     7
370
    25
100
AcDbLine
 10
385.6171407853
 20
391.2797307365
 30
0.0
 11
384.4150592573
 21
391.9736776315
 31
0.0
  0
ARC
  5
35B
330
1F
100
AcDbEntity
  8
0
  6
Continuous
 62
     7
370
    25
100
AcDbCircle
 10
383.9200845105
 20
391.0183798721
 30
0.0
 40
1.075915335538044
100
AcDbArc
 50
62.6096722366
 51
117.3903277634
  0
LINE
  5
35C
330
1F
100
AcDbEntity
  8
0
  6
Continuous
 62
     7
370
    25
100
AcDbLine
 10
383.4251097637
 20
391.9736776315
 30
0.0
 11
383.2836884074
 21
391.8920368204
 31
0.0
  0
ARC
  5
35D
330
1F
100
AcDbEntity
  8
0
  6
Continuous
 62
     7
370
    25
100
AcDbCircle
 10
383.3921373262
 20
391.6062939812
 30
0.0
 40
0.3056307217840224
100
AcDbArc
 50
110.7834207995
 51
249.2165792005
  0
LINE
  5
35E
330
1F
100
AcDbEntity
  8
0
  6
Continuous
 62
     7
370
    25
100
AcDbLine
 10
383.2836884074
 20
391.3205511421
 30
0.0
 11
384.4857699354
 21
390.626604247
 31
0.0
  0
ARC
  5
35F
330
1F
100
AcDbEntity
  8
0
  6
Continuous
 62
     7
370
    25
100
AcDbCircle
 10
384.9807446823
 20
391.5819020065
 30
0.0
 40
1.075915335538421
100
AcDbArc
 50
242.6096722366
 51
297.3903277634
  0
LINE
  5
360
330
1F
100
AcDbEntity
  8
0
  6
Continuous
 62
     7
370
    25
100
AcDbLine
 10
385.4757194291
 20
390.626604247
 30
0.0
 11
385.6171407853
 21
390.7082450582
 31
0.0
  0
LINE
  5
361
330
1F
100
AcDbEntity
  8
0
  6
Continuous
 62
     7
370
    25
100
AcDbLine
 10
385.7585621416
 20
391.3613715477
 30
0.0
 11
384.5564806136
 21
392.0553184427
 31
0.0
  0
LWPOLYLINE
  5
362
330
1F
100
AcDbEntity
  8
0
  6
Continuous
 62
     7
370
    25
100
AcDbPolyline
 90
        9
 70
   128
 43
0.0
 10
385.7585621416
 20
390.626604247
 10
385.8704886896
 20
390.7053364155
 10
385.9536576178
 20
390.7951612985
 10
386.0048727909
 20
390.8926269763
 10
386.0221660385
 20
390.9939878973
 10
386.0048727909
 20
391.0953488184
 10
385.9536576178
 20
391.1928144962
 10
385.8704886896
 20
391.2826393792
 10
385.7585621416
 20
391.3613715477
  0
LINE
  5
363
330
1F
100
AcDbEntity
  8
0
  6
Continuous
 62
     7
370
    25
100
AcDbLine
 10
385.6171407853
 20
390.5449634358
 30
0.0
 11
385.7585621416
 21
390.626604247
 31
0.0
  0
LINE
  5
364
330
1F
100
AcDbEntity
  8
0
  6
Continuous
 62
     7
370
    25
100
AcDbLine
 10
383.1422670512
 20
391.2389103309
 30
0.0
 11
384.3443485792
 21
390.5449634358
 31
0.0
  0
LWPOLYLINE
  5
365
330
1F
100
AcDbEntity
  8
0
  6
Continuous
 62
     7
370
    25
100
AcDbPolyline
 90
        9
 70
   128
 43
0.0
 10
383.1422670512
 20
391.9736776315
 10
383.0303405032
 20
391.8949454631
 10
382.947171575
 20
391.80512058
 10
382.8959564019
 20
391.7076549023
 10
382.8786631543
 20
391.6062939812
 10
382.8959564019
 20
391.5049330601
 10
382.947171575
 20
391.4074673824
 10
383.0303405032
 20
391.3176424994
 10
383.1422670512
 20
391.2389103309
  0
LINE
  5
366
330
1F
100
AcDbEntity
  8
0
  6
Continuous
 62
     7
370
    25
100
AcDbLine
 10
383.2836884074
 20
392.0553184427
 30
0.0
 11
383.1422670512
 21
391.9736776315
 31
0.0
  0
ARC
  5
367
330
1F
100
AcDbEntity
  8
0
  6
Continuous
 62
     7
370
    25
100
AcDbCircle
 10
383.9200845105
 20
390.8270784663
 30
0.0
 40
1.383319717120605
100
AcDbArc
 50
62.6096722366
 51
117.3903277634
  0
LINE
  5
368
330
1F
100
AcDbEntity
  8
0
  6
Continuous
 62
     7
370
    25
100
AcDbLine
 10
399.4764336966
 20
373.8494175491
 30
0.0
 11
354.2215997007
 21
399.9744771274
 31
0.0
  0
LWPOLYLINE
  5
369
330
1F
100
AcDbEntity
  8
0
  6
Continuous
 62
     7
370
    25
100
AcDbPolyline
 90
        9
 70
   128
 43
0.0
 10
385.7585621416
 20
391.3613715477
 10
385.8704886896
 20
391.2826393792
 10
385.9536576178
 20
391.1928144962
 10
386.0048727909
 20
391.0953488184
 10
386.0221660385
 20
390.9939878973
 10
386.0048727909
 20
390.8926269763
 10
385.9536576178
 20
390.7951612985
 10
385.8704886896
 20
390.7053364155
 10
385.7585621416
 20
390.626604247
  0
LWPOLYLINE
  5
36A
330
1F
100
AcDbEntity
  8
0
  6
Continuous
 62
     7
370
    25
100
AcDbPolyline
 90
        9
 70
   128
 43
0.0
 10
383.1422670512
 20
391.2389103309
 10
383.0303405032
 20
391.3176424994
 10
382.947171575
 20
391.4074673824
 10
382.8959564019
 20
391.5049330601
 10
382.8786631543
 20
391.6062939812
 10
382.8959564019
 20
391.7076549023
 10
382.947171575
 20
391.80512058
 10
383.0303405032
 20
391.8949454631
 10
383.1422670512
 20
391.9736776315
  0
LWPOLYLINE
  5
36B
330
1F
100
AcDbEntity
  8
0
  6
Continuous
 62
     7
370
    25
100
AcDbPolyline
 90
        9
 70
   128
 43
0.0
 10
408.5274004958
 20
403.7707748474
 10
408.6393270438
 20
403.8495070158
 10
408.722495972
 20
403.9393318989
 10
408.7737111451
 20
404.0367975766
 10
408.7910043927
 20
404.1381584977
 10
408.7737111451
 20
404.2395194188
 10
408.722495972
 20
404.3369850965
 10
408.6393270438
 20
404.4268099795
 10
408.5274004958
 20
404.505542148
  0
LWPOLYLINE
  5
36C
330
1F
100
AcDbEntity
  8
0
  6
Continuous
 62
     7
370
    25
100
AcDbPolyline
 90
        9
 70
   128
 43
0.0
 10
405.9111054054
 20
404.3830809312
 10
405.7991788574
 20
404.4618130997
 10
405.7160099292
 20
404.5516379828
 10
405.6647947561
 20
404.6491036605
 10
405.6475015085
 20
404.7504645816
 10
405.6647947561
 20
404.8518255026
 10
405.7160099292
 20
404.9492911804
 10
405.7991788574
 20
405.0391160634
 10
405.9111054054
 20
405.1178482319
  0
LINE
  5
36D
330
1F
100
AcDbEntity
  8
0
  6
Continuous
 62
     7
370
    25
100
AcDbLine
 10
354.2215997007
 20
399.9744771274
 30
0.0
 11
392.1932338504
 21
421.8950349298
 31
0.0
  0
LINE
  5
36E
330
1F
100
AcDbEntity
  8
0
  6
Continuous
 62
     7
370
    25
100
AcDbLine
 10
392.1932338504
 20
421.8950349298
 30
0.0
 11
437.4480678463
 21
395.7699753515
 31
0.0
  0
LINE
  5
36F
330
1F
100
AcDbEntity
  8
0
  6
Continuous
 62
     7
370
    25
100
AcDbLine
 10
437.4480678463
 20
395.7699753515
 30
0.0
 11
399.4764336966
 21
373.8494175491
 31
0.0
  0
LINE
  5
370
330
1F
100
AcDbEntity
  8
0
  6
Continuous
 62
     7
370
    25
100
AcDbLine
 10
332.7255535526
 20
335.314954671
 30
0.0
 11
287.4707195567
 21
361.4400142494
 31
0.0
  0
LWPOLYLINE
  5
371
330
1F
100
AcDbEntity
  8
0
  6
Continuous
 62
     7
370
    25
100
AcDbPolyline
 90
        9
 70
   128
 43
0.0
 10
319.0076819976
 20
352.8269086696
 10
319.1196085456
 20
352.7481765012
 10
319.2027774738
 20
352.6583516181
 10
319.2539926469
 20
352.5608859404
 10
319.2712858945
 20
352.4595250193
 10
319.2539926469
 20
352.3581640982
 10
319.2027774738
 20
352.2606984205
 10
319.1196085456
 20
352.1708735375
 10
319.0076819976
 20
352.092141369
  0
LWPOLYLINE
  5
372
330
1F
100
AcDbEntity
  8
0
  6
Continuous
 62
     7
370
    25
100
AcDbPolyline
 90
        9
 70
   128
 43
0.0
 10
316.3913869072
 20
352.7044474529
 10
316.2794603592
 20
352.7831796213
 10
316.196291431
 20
352.8730045044
 10
316.1450762579
 20
352.9704701821
 10
316.1277830102
 20
353.0718311032
 10
316.1450762579
 20
353.1731920243
 10
316.196291431
 20
353.270657702
 10
316.2794603592
 20
353.360482585
 10
316.3913869072
 20
353.4392147535
  0
LWPOLYLINE
  5
373
330
1F
100
AcDbEntity
  8
0
  6
Continuous
 62
     7
370
    25
100
AcDbPolyline
 90
        9
 70
   128
 43
0.0
 10
341.7765203518
 20
365.2363119693
 10
341.8884468998
 20
365.3150441378
 10
341.971615828
 20
365.4048690209
 10
342.0228310011
 20
365.5023346986
 10
342.0401242487
 20
365.6036956197
 10
342.0228310011
 20
365.7050565407
 10
341.971615828
 20
365.8025222185
 10
341.8884468998
 20
365.8923471015
 10
341.7765203518
 20
365.97107927
  0
LWPOLYLINE
  5
374
330
1F
100
AcDbEntity
  8
0
  6
Continuous
 62
     7
370
    25
100
AcDbPolyline
 90
        9
 70
   128
 43
0.0
 10
339.1602252614
 20
365.8486180532
 10
339.0482987134
 20
365.9273502217
 10
338.9651297852
 20
366.0171751047
 10
338.9139146121
 20
366.1146407824
 10
338.8966213645
 20
366.2160017035
 10
338.9139146121
 20
366.3173626246
 10
338.9651297852
 20
366.4148283023
 10
339.0482987134
 20
366.5046531854
 10
339.1602252614
 20
366.5833853538
  0
LINE
  5
375
330
1F
100
AcDbEntity
  8
0
  6
Continuous
 62
     7
370
    25
100
AcDbLine
 10
287.4707195567
 20
361.4400142494
 30
0.0
 11
325.4423537064
 21
383.3605720518
 31
0.0
  0
LINE
  5
376
330
1F
100
AcDbEntity
  8
0
  6
Continuous
 62
     7
370
    25
100
AcDbLine
 10
325.4423537064
 20
383.3605720518
 30
0.0
 11
370.6971877023
 21
357.2355124735
 31
0.0
  0
LINE
  5
377
330
1F
100
AcDbEntity
  8
0
  6
Continuous
 62
     7
370
    25
100
AcDbLine
 10
370.6971877023
 20
357.2355124735
 30
0.0
 11
332.7255535526
 21
335.314954671
 31
0.0
  0
LINE
  5
378
330
1F
100
AcDbEntity
  8
0
  6
Continuous
 62
     7
370
    25
100
AcDbLine
 10
399.4764336966
 20
373.8531958724
 30
0.0
 11
354.2281446578
 21
399.9744771274
 31
0.0
  0
LINE
  5
379
330
1F
100
AcDbEntity
  8
0
  6
Continuous
 62
     7
370
    25
100
AcDbLine
 10
437.4415228892
 20
395.7699753515
 30
0.0
 11
399.4764336966
 21
373.8531958724
 31
0.0
  0
LINE
  5
37A
330
1F
100
AcDbEntity
  8
0
  6
Continuous
 62
     7
370
    25
100
AcDbLine
 10
392.1932338504
 20
421.8912566065
 30
0.0
 11
437.4415228892
 21
395.7699753515
 31
0.0
  0
LINE
  5
37B
330
1F
100
AcDbEntity
  8
0
  6
Continuous
 62
     7
370
    25
100
AcDbLine
 10
354.2281446578
 20
399.9744771274
 30
0.0
 11
392.1932338504
 21
421.8912566065
 31
0.0
  0
LINE
  5
37C
330
1F
100
AcDbEntity
  8
0
  6
Continuous
 62
     7
370
    25
100
AcDbLine
 10
437.872331915
 20
395.7699753515
 30
0.0
 11
399.4764336966
 21
373.6044951155
 31
0.0
  0
LINE
  5
37D
330
1F
100
AcDbEntity
  8
0
  6
Continuous
 62
     7
370
    25
100
AcDbLine
 10
399.4764336966
 20
373.6044951155
 30
0.0
 11
353.7973356319
 21
399.9744771274
 31
0.0
  0
LINE
  5
37E
330
1F
100
AcDbEntity
  8
0
  6
Continuous
 62
     7
370
    25
100
AcDbLine
 10
353.7973356319
 20
399.9744771274
 30
0.0
 11
392.1932338504
 21
422.1399573634
 31
0.0
  0
LINE
  5
37F
330
1F
100
AcDbEntity
  8
0
  6
Continuous
 62
     7
370
    25
100
AcDbLine
 10
392.1932338504
 20
422.1399573634
 30
0.0
 11
437.872331915
 21
395.7699753515
 31
0.0
  0
LINE
  5
380
330
1F
100
AcDbEntity
  8
0
  6
Continuous
 62
     7
370
    25
100
AcDbLine
 10
437.7981473167
 20
395.5270583694
 30
0.0
 11
437.872331915
 21
395.7699753515
 31
0.0
  0
LINE
  5
381
330
1F
100
AcDbEntity
  8
0
  6
Continuous
 62
     7
370
    25
100
AcDbLine
 10
399.4764336966
 20
373.5228543043
 30
0.0
 11
399.4764336966
 21
373.6044951155
 31
0.0
  0
LINE
  5
382
330
1F
100
AcDbEntity
  8
0
  6
Continuous
 62
     7
370
    25
100
AcDbLine
 10
353.8124699633
 20
399.9249198583
 30
0.0
 11
353.7973356319
 21
399.9744771274
 31
0.0
  0
LINE
  5
383
330
1F
100
AcDbEntity
  8
0
  6
Continuous
 62
     7
370
    25
100
AcDbLine
 10
332.7255535526
 20
335.3187329944
 30
0.0
 11
287.4772645138
 21
361.4400142494
 31
0.0
  0
LINE
  5
384
330
1F
100
AcDbEntity
  8
0
  6
Continuous
 62
     7
370
    25
100
AcDbLine
 10
370.6906427452
 20
357.2355124735
 30
0.0
 11
332.7255535526
 21
335.3187329944
 31
0.0
  0
LINE
  5
385
330
1F
100
AcDbEntity
  8
0
  6
Continuous
 62
     7
370
    25
100
AcDbLine
 10
325.4423537064
 20
383.3567937285
 30
0.0
 11
370.6906427452
 21
357.2355124735
 31
0.0
  0
LINE
  5
386
330
1F
100
AcDbEntity
  8
0
  6
Continuous
 62
     7
370
    25
100
AcDbLine
 10
287.4772645138
 20
361.4400142494
 30
0.0
 11
325.4423537064
 21
383.3567937285
 31
0.0
  0
LINE
  5
387
330
1F
100
AcDbEntity
  8
0
  6
Continuous
 62
     7
370
    25
100
AcDbLine
 10
371.121451771
 20
357.2355124735
 30
0.0
 11
332.7255535526
 21
335.0700322375
 31
0.0
  0
LINE
  5
388
330
1F
100
AcDbEntity
  8
0
  6
Continuous
 62
     7
370
    25
100
AcDbLine
 10
332.7255535526
 20
335.0700322375
 30
0.0
 11
287.0464554879
 21
361.4400142494
 31
0.0
  0
LINE
  5
389
330
1F
100
AcDbEntity
  8
0
  6
Continuous
 62
     7
370
    25
100
AcDbLine
 10
287.0464554879
 20
361.4400142494
 30
0.0
 11
325.4423537064
 21
383.6054944854
 31
0.0
  0
LINE
  5
38A
330
1F
100
AcDbEntity
  8
0
  6
Continuous
 62
     7
370
    25
100
AcDbLine
 10
325.4423537064
 20
383.6054944854
 30
0.0
 11
371.121451771
 21
357.2355124735
 31
0.0
  0
LINE
  5
38B
330
1F
100
AcDbEntity
  8
0
  6
Continuous
 62
     7
370
    25
100
AcDbLine
 10
371.0911831083
 20
357.1363979352
 30
0.0
 11
371.121451771
 21
357.2355124735
 31
0.0
  0
LINE
  5
38C
330
1F
100
AcDbEntity
  8
0
  6
Continuous
 62
     7
370
    25
100
AcDbLine
 10
332.7255535526
 20
334.9475710207
 30
0.0
 11
332.7255535526
 21
335.0700322375
 31
0.0
  0
LINE
  5
38D
330
1F
100
AcDbEntity
  8
0
  6
Continuous
 62
     7
370
    25
100
AcDbLine
 10
287.0918584821
 20
361.291342442
 30
0.0
 11
287.0464554879
 21
361.4400142494
 31
0.0
  0
LINE
  5
38E
330
1F
100
AcDbEntity
  8
0
  6
Continuous
 62
     7
370
    25
100
AcDbLine
 10
333.3265943166
 20
335.0088016291
 30
0.0
 11
333.0437516041
 21
335.1720832515
 31
0.0
  0
LINE
  5
38F
330
1F
100
AcDbEntity
  8
0
  6
Continuous
 62
     7
370
    25
100
AcDbLine
 10
333.3265943166
 20
334.6005975732
 30
0.0
 11
333.3265943166
 21
335.0088016291
 31
0.0
  0
LINE
  5
390
330
1F
100
AcDbEntity
  8
0
  6
Continuous
 62
     7
370
    25
100
AcDbLine
 10
333.0437516041
 20
334.7638791956
 30
0.0
 11
333.0437516041
 21
335.1720832515
 31
0.0
  0
LINE
  5
391
330
1F
100
AcDbEntity
  8
0
  6
Continuous
 62
     7
370
    25
100
AcDbLine
 10
437.6955552197
 20
395.5862835264
 30
0.0
 11
333.0437516041
 21
335.1720832515
 31
0.0
  0
LINE
  5
392
330
1F
100
AcDbEntity
  8
0
  6
Continuous
 62
     7
370
    25
100
AcDbLine
 10
437.9783979322
 20
395.423001904
 30
0.0
 11
437.6955552197
 21
395.5862835264
 31
0.0
  0
LINE
  5
393
330
1F
100
AcDbEntity
  8
0
  6
Continuous
 62
     7
370
    25
100
AcDbLine
 10
437.9783979322
 20
395.423001904
 30
0.0
 11
333.3265943166
 21
335.0088016291
 31
0.0
  0
LINE
  5
394
330
1F
100
AcDbEntity
  8
0
  6
Continuous
 62
     7
370
    25
100
AcDbLine
 10
437.9783979322
 20
389.380599896
 30
0.0
 11
437.9783979322
 21
395.423001904
 31
0.0
  0
LINE
  5
395
330
1F
100
AcDbEntity
  8
0
  6
Continuous
 62
     7
370
    25
100
AcDbLine
 10
437.9783979322
 20
389.380599896
 30
0.0
 11
338.206481619
 21
331.7834985972
 31
0.0
  0
LINE
  5
396
330
1F
100
AcDbEntity
  8
0
  6
Continuous
 62
     7
370
    25
100
AcDbLine
 10
430.7659087641
 20
385.2169185257
 30
0.0
 11
430.7659087641
 21
384.8892804105
 31
0.0
  0
LINE
  5
397
330
1F
100
AcDbEntity
  8
0
  6
Continuous
 62
     7
370
    25
100
AcDbLine
 10
430.7659087641
 20
384.8892804105
 30
0.0
 11
430.4821350856
 21
385.0530994681
 31
0.0
  0
LINE
  5
398
330
1F
100
AcDbEntity
  8
0
  6
Continuous
 62
     7
370
    25
100
AcDbLine
 10
432.8872291077
 20
386.4415306935
 30
0.0
 11
432.8872291077
 21
386.1138925782
 31
0.0
  0
LINE
  5
399
330
1F
100
AcDbEntity
  8
0
  6
Continuous
 62
     7
370
    25
100
AcDbLine
 10
432.8872291077
 20
386.1138925782
 30
0.0
 11
430.7659087641
 21
384.8892804105
 31
0.0
  0
LINE
  5
39A
330
1F
100
AcDbEntity
  8
0
  6
Continuous
 62
     7
370
    25
100
AcDbLine
 10
392.2285891894
 20
422.2420083774
 30
0.0
 11
392.2285891894
 21
422.1195471606
 31
0.0
  0
LINE
  5
39B
330
1F
100
AcDbEntity
  8
0
  6
Continuous
 62
     7
370
    25
100
AcDbLine
 10
445.5444404909
 20
391.4634225616
 30
0.0
 11
392.2285891894
 21
422.2420083774
 31
0.0
  0
LINE
  5
39C
330
1F
100
AcDbEntity
  8
0
  6
Continuous
 62
     7
370
    25
100
AcDbLine
 10
445.5444404909
 20
368.8452818824
 30
0.0
 11
445.5444404909
 21
391.4634225616
 31
0.0
  0
LINE
  5
39D
330
1F
100
AcDbEntity
  8
0
  6
Continuous
 62
     7
370
    25
100
AcDbLine
 10
445.5444404909
 20
391.4634225616
 30
0.0
 11
445.8272832034
 21
391.626704184
 31
0.0
  0
LINE
  5
39E
330
1F
100
AcDbEntity
  8
0
  6
Continuous
 62
     7
370
    25
100
AcDbLine
 10
392.2285891894
 20
422.2420083774
 30
0.0
 11
392.5114319019
 21
422.4052899997
 31
0.0
  0
LINE
  5
39F
330
1F
100
AcDbEntity
  8
0
  6
Continuous
 62
     7
370
    25
100
AcDbLine
 10
445.8272832034
 20
391.626704184
 30
0.0
 11
392.5114319019
 21
422.4052899997
 31
0.0
  0
LINE
  5
3A0
330
1F
100
AcDbEntity
  8
0
  6
Continuous
 62
     7
370
    25
100
AcDbLine
 10
445.8272832034
 20
368.6820002601
 30
0.0
 11
445.8272832034
 21
391.626704184
 31
0.0
  0
LINE
  5
3A1
330
1F
100
AcDbEntity
  8
0
  6
Continuous
 62
     7
370
    25
100
AcDbLine
 10
286.5868360802
 20
361.2563224242
 30
0.0
 11
286.5868360802
 21
355.7854989846
 31
0.0
  0
LINE
  5
3A2
330
1F
100
AcDbEntity
  8
0
  6
Continuous
 62
     7
370
    25
100
AcDbLine
 10
339.9026873816
 20
330.4777366085
 30
0.0
 11
286.5868360802
 21
361.2563224242
 31
0.0
  0
LINE
  5
3A3
330
1F
100
AcDbEntity
  8
0
  6
Continuous
 62
     7
370
    25
100
AcDbLine
 10
339.9026873816
 20
303.5318898163
 30
0.0
 11
339.9026873816
 21
330.4777366085
 31
0.0
  0
LINE
  5
3A4
330
1F
100
AcDbEntity
  8
0
  6
Continuous
 62
     7
370
    25
100
AcDbLine
 10
322.225017852
 20
313.736991214
 30
0.0
 11
339.9026873816
 21
303.5318898163
 31
0.0
  0
LINE
  5
3A5
330
1F
100
AcDbEntity
  8
0
  6
Continuous
 62
     7
370
    25
100
AcDbLine
 10
322.225017852
 20
334.9670523231
 30
0.0
 11
322.225017852
 21
313.736991214
 31
0.0
  0
LINE
  5
3A6
330
1F
100
AcDbEntity
  8
0
  6
Continuous
 62
     7
370
    25
100
AcDbLine
 10
322.225017852
 20
334.9670523231
 30
0.0
 11
322.3098706657
 21
334.9180678364
 31
0.0
  0
LINE
  5
3A7
330
1F
100
AcDbEntity
  8
0
  6
Continuous
 62
     7
370
    25
100
AcDbLine
 10
322.3098706657
 20
334.9180678364
 30
0.0
 11
322.3098706657
 21
335.2610149774
 31
0.0
  0
LWPOLYLINE
  5
3A8
330
1F
100
AcDbEntity
  8
0
  6
Continuous
 62
     7
370
    25
100
AcDbPolyline
 90
        9
 70
   128
 43
0.0
 10
322.3098706657
 20
335.2610149774
 10
322.3066411478
 20
335.2816279368
 10
322.2974442588
 20
335.3028314821
 10
322.2836801418
 20
335.3213975656
 10
322.2674442588
 20
335.3344996694
 10
322.2512083758
 20
335.3401431171
 10
322.2374442588
 20
335.3374687448
 10
322.2282473699
 20
335.3268837015
 10
322.225017852
 20
335.3099994641
  0
LINE
  5
3A9
330
1F
100
AcDbEntity
  8
0
  6
Continuous
 62
     7
370
    25
100
AcDbLine
 10
322.225017852
 20
335.3099994641
 30
0.0
 11
322.225017852
 21
335.2120145666
 31
0.0
  0
LINE
  5
3AA
330
1F
100
AcDbEntity
  8
0
  6
Continuous
 62
     7
370
    25
100
AcDbLine
 10
286.5868360802
 20
355.7854989846
 30
0.0
 11
293.3043505014
 21
351.9075604534
 31
0.0
  0
LINE
  5
3AB
330
1F
100
AcDbEntity
  8
0
  6
Continuous
 62
     7
370
    25
100
AcDbLine
 10
286.8696787926
 20
361.4196040466
 30
0.0
 11
286.5868360802
 21
361.2563224242
 31
0.0
  0
LINE
  5
3AC
330
1F
100
AcDbEntity
  8
0
  6
Continuous
 62
     7
370
    25
100
AcDbLine
 10
340.1855300941
 20
330.6410182309
 30
0.0
 11
286.8696787926
 21
361.4196040466
 31
0.0
  0
LINE
  5
3AD
330
1F
100
AcDbEntity
  8
0
  6
Continuous
 62
     7
370
    25
100
AcDbLine
 10
340.1855300941
 20
330.6410182309
 30
0.0
 11
339.9026873816
 21
330.4777366085
 31
0.0
  0
LINE
  5
3AE
330
1F
100
AcDbEntity
  8
0
  6
Continuous
 62
     7
370
    25
100
AcDbLine
 10
340.1855300941
 20
303.6951714386
 30
0.0
 11
340.1855300941
 21
330.6410182309
 31
0.0
  0
LINE
  5
3AF
330
1F
100
AcDbEntity
  8
0
  6
Continuous
 62
     7
370
    25
100
AcDbLine
 10
340.1855300941
 20
303.6951714386
 30
0.0
 11
339.9026873816
 21
303.5318898163
 31
0.0
  0
ARC
  5
3B0
330
1F
100
AcDbEntity
  8
0
  6
Continuous
 62
     7
370
    25
100
AcDbCircle
 10
322.6661105575
 20
335.1949818694
 30
0.0
 40
0.4414214399477038
100
AcDbArc
 50
177.7886348381
 51
206.9936604194
  0
ARC
  5
3B1
330
1F
100
AcDbEntity
  8
0
  6
Continuous
 62
     7
370
    25
100
AcDbCircle
 10
293.6473518334
 20
351.8696997374
 30
0.0
 40
0.3450845513088733
100
AcDbArc
 50
173.7011525118
 51
234.9866670948
  0
LINE
  5
3B2
330
1F
100
AcDbEntity
  8
0
  6
Continuous
 62
     7
370
    25
100
AcDbLine
 10
322.3098706657
 20
335.0160368098
 30
0.0
 11
322.225017852
 21
334.9670523231
 31
0.0
  0
LINE
  5
3B3
330
1F
100
AcDbEntity
  8
0
  6
Continuous
 62
     7
370
    25
100
AcDbLine
 10
293.3043505014
 20
351.3359818851
 30
0.0
 11
293.3043505014
 21
351.6625982098
 31
0.0
  0
LINE
  5
3B4
330
1F
100
AcDbEntity
  8
0
  6
Continuous
 62
     7
370
    25
100
AcDbLine
 10
293.3043505014
 20
351.6625982098
 30
0.0
 11
293.3521116528
 21
351.6901701356
 31
0.0
  0
LINE
  5
3B5
330
1F
100
AcDbEntity
  8
0
  6
Continuous
 62
     7
370
    25
100
AcDbLine
 10
293.3043505014
 20
351.3359818851
 30
0.0
 11
293.5943235572
 21
351.503379767
 31
0.0
  0
LINE
  5
3B6
330
1F
100
AcDbEntity
  8
0
  6
Continuous
 62
     7
370
    25
100
AcDbLine
 10
286.7989681145
 20
355.0914591995
 30
0.0
 11
293.3043505014
 21
351.3359818851
 31
0.0
  0
LINE
  5
3B7
330
1F
100
AcDbEntity
  8
0
  6
Continuous
 62
     7
370
    25
100
AcDbLine
 10
286.7989681145
 20
355.4180755242
 30
0.0
 11
293.3043505014
 21
351.6625982098
 31
0.0
  0
LINE
  5
3B8
330
1F
100
AcDbEntity
  8
0
  6
Continuous
 62
     7
370
    25
100
AcDbLine
 10
286.5868360802
 20
361.2563224242
 30
0.0
 11
392.5114319019
 21
422.4052899997
 31
0.0
  0
LINE
  5
3B9
330
1F
100
AcDbEntity
  8
0
  6
Continuous
 62
     7
370
    25
100
AcDbLine
 10
286.3039933677
 20
361.4196040466
 30
0.0
 11
286.5868360802
 21
361.2563224242
 31
0.0
  0
LINE
  5
3BA
330
1F
100
AcDbEntity
  8
0
  6
Continuous
 62
     7
370
    25
100
AcDbLine
 10
286.3039933677
 20
361.4196040466
 30
0.0
 11
392.2285891894
 21
422.5685716221
 31
0.0
  0
LINE
  5
3BB
330
1F
100
AcDbEntity
  8
0
  6
Continuous
 62
     7
370
    25
100
AcDbLine
 10
392.2285891894
 20
422.5685716221
 30
0.0
 11
392.5114319019
 21
422.4052899997
 31
0.0
  0
LINE
  5
3BC
330
1F
100
AcDbEntity
  8
0
  6
Continuous
 62
     7
370
    25
100
AcDbLine
 10
286.3039933677
 20
355.9487806069
 30
0.0
 11
286.3039933677
 21
361.4196040466
 31
0.0
  0
ARC
  5
3BD
330
1F
100
AcDbEntity
  8
0
  6
Continuous
 62
     7
370
    25
100
AcDbCircle
 10
287.3786446387
 20
355.9976832035
 30
0.0
 40
1.075763365300498
100
AcDbArc
 50
182.6054784857
 51
237.39452166
  0
ARC
  5
3BE
330
1F
100
AcDbEntity
  8
0
  6
Continuous
 62
     7
370
    25
100
AcDbCircle
 10
287.0474009106
 20
355.8064572402
 30
0.0
 40
0.4610414422717311
100
AcDbArc
 50
182.6054784857
 51
237.39452166
  0
LINE
  5
3BF
330
1F
100
AcDbEntity
  8
0
  6
Continuous
 62
     7
370
    25
100
AcDbLine
 10
287.2939428614
 20
280.2554473451
 30
0.0
 11
372.1467566037
 21
231.2709606358
 31
0.0
  0
LINE
  5
3C0
330
1F
100
AcDbEntity
  8
0
  6
Continuous
 62
     7
370
    25
100
AcDbLine
 10
287.2939428614
 20
354.8057163603
 30
0.0
 11
287.2939428614
 21
280.2554473451
 31
0.0
  0
LINE
  5
3C1
330
1F
100
AcDbEntity
  8
0
  6
Continuous
 62
     7
370
    25
100
AcDbLine
 10
340.1855300941
 20
308.5127224187
 30
0.0
 11
372.1467566037
 21
290.0618990915
 31
0.0
  0
LINE
  5
3C2
330
1F
100
AcDbEntity
  8
0
  6
Continuous
 62
     7
370
    25
100
AcDbLine
 10
372.1467566037
 20
290.0618990915
 30
0.0
 11
372.1467566037
 21
231.2709606358
 31
0.0
  0
LINE
  5
3C3
330
1F
100
AcDbEntity
  8
0
  6
Continuous
 62
     7
370
    25
100
AcDbLine
 10
372.1467566037
 20
231.2709606358
 30
0.0
 11
477.0814029318
 21
291.848442533
 31
0.0
  0
LINE
  5
3C4
330
1F
100
AcDbEntity
  8
0
  6
Continuous
 62
     7
370
    25
100
AcDbLine
 10
477.0814029318
 20
350.6393809888
 30
0.0
 11
372.1467566037
 21
290.0618990915
 31
0.0
  0
LINE
  5
3C5
330
1F
100
AcDbEntity
  8
0
  6
Continuous
 62
     7
370
    25
100
AcDbLine
 10
477.0814029318
 20
350.6393809888
 30
0.0
 11
477.0814029318
 21
291.848442533
 31
0.0
  0
LINE
  5
3C6
330
1F
100
AcDbEntity
  8
0
  6
Continuous
 62
     7
370
    25
100
AcDbLine
 10
422.2233095109
 20
375.3026374642
 30
0.0
 11
446.7700726953
 21
361.1320927064
 31
0.0
  0
LINE
  5
3C7
330
1F
100
AcDbEntity
  8
0
  6
Continuous
 62
     7
370
    25
100
AcDbLine
 10
451.1866989868
 20
358.5824286194
 30
0.0
 11
464.9459518937
 21
350.6393809888
 31
0.0
  0
LINE
  5
3C8
330
1F
100
AcDbEntity
  8
0
  6
Continuous
 62
     7
370
    25
100
AcDbLine
 10
428.29103503
 20
378.8054608467
 30
0.0
 11
422.2233095109
 21
375.3026374642
 31
0.0
  0
LINE
  5
3C9
330
1F
100
AcDbEntity
  8
0
  6
Continuous
 62
     7
370
    25
100
AcDbLine
 10
428.29103503
 20
378.8054608467
 30
0.0
 11
477.0814029318
 21
350.6393809888
 31
0.0
  0
LINE
  5
3CA
330
1F
100
AcDbEntity
  8
0
  6
Continuous
 62
     7
370
    25
100
AcDbLine
 10
464.9459518937
 20
350.6393809888
 30
0.0
 11
372.1467566037
 21
297.0675458565
 31
0.0
  0
LWPOLYLINE
  5
3CB
330
1F
100
AcDbEntity
  8
0
  6
Continuous
 62
     7
370
    25
100
AcDbPolyline
 90
       26
 70
   128
 43
0.0
 10
383.5311757808
 20
299.8179760278
 10
383.4123365616
 20
299.7647609841
 10
383.2743063758
 20
299.7302790145
 10
383.1257581676
 20
299.7166967481
 10
382.9760257673
 20
299.7248676086
 10
382.8345174123
 20
299.7542781907
 10
382.7101245929
 20
299.8030805194
 10
382.6106633676
 20
299.868208165
 10
382.5423832508
 20
299.945568918
 10
382.5095745334
 20
300.0303019176
 10
382.5142987078
 20
300.117083078
 10
382.5562589367
 20
300.2004596197
 10
382.6328187047
 20
300.2751926878
 10
382.7391674799
 20
300.3365865289
 10
382.8686229778
 20
300.3807835422
 10
383.0130510331
 20
300.4050066668
 10
383.1633767001
 20
300.4077338746
 10
383.3101544643
 20
300.3887938052
 10
383.4441617388
 20
300.3493765328
 10
383.5569783539
 20
300.2919587896
 10
383.6415156266
 20
300.2201483435
 10
383.6924617693
 20
300.138457309
 10
383.7066156484
 20
300.0520186342
 10
383.6830879235
 20
299.966263579
 10
383.6233569283
 20
299.8865804488
 10
383.5311757808
 20
299.8179760278
  0
LWPOLYLINE
  5
3CC
330
1F
100
AcDbEntity
  8
0
  6
Continuous
 62
     7
370
    25
100
AcDbPolyline
 90
       26
 70
   128
 43
0.0
 10
460.1815508615
 20
344.0672956886
 10
460.0627116422
 20
344.0140806449
 10
459.9246814564
 20
343.9795986753
 10
459.7761332482
 20
343.9660164089
 10
459.6264008479
 20
343.9741872693
 10
459.4848924929
 20
344.0035978515
 10
459.3604996736
 20
344.0524001802
 10
459.2610384482
 20
344.1175278258
 10
459.1927583314
 20
344.1948885788
 10
459.159949614
 20
344.2796215784
 10
459.1646737884
 20
344.3664027388
 10
459.2066340173
 20
344.4497792804
 10
459.2831937853
 20
344.5245123486
 10
459.3895425606
 20
344.5859061897
 10
459.5189980584
 20
344.630103203
 10
459.6634261137
 20
344.6543263276
 10
459.8137517807
 20
344.6570535354
 10
459.9605295449
 20
344.638113466
 10
460.0945368195
 20
344.5986961936
 10
460.2073534345
 20
344.5412784504
 10
460.2918907073
 20
344.4694680043
 10
460.3428368499
 20
344.3877769698
 10
460.356990729
 20
344.301338295
 10
460.3334630042
 20
344.2155832398
 10
460.273732009
 20
344.1359001096
 10
460.1815508615
 20
344.0672956886
  0
LINE
  5
3CD
330
1F
100
AcDbEntity
  8
0
  6
Continuous
 62
     7
370
    25
100
AcDbLine
 10
372.1467566037
 20
297.0675458565
 30
0.0
 11
340.1855300941
 21
315.5183691836
 31
0.0
  0
LINE
  5
3CE
330
1F
100
AcDbEntity
  8
0
  6
Continuous
 62
     7
370
    25
100
AcDbLine
 10
392.2285891894
 20
335.0585769468
 30
0.0
 11
392.2285891894
 21
362.9697974786
 31
0.0
  0
LINE
  5
3CF
330
1F
100
AcDbEntity
  8
0
  6
Continuous
 62
     7
370
    25
100
AcDbLine
 10
369.5112810441
 20
321.9441541029
 30
0.0
 11
362.9748222441
 21
346.0819572888
 31
0.0
  0
LINE
  5
3D0
330
1F
100
AcDbEntity
  8
0
  6
Continuous
 62
     7
370
    25
100
AcDbLine
 10
392.2285891894
 20
335.0585769468
 30
0.0
 11
369.5112810441
 21
321.9441541029
 31
0.0
  0
LINE
  5
3D1
330
1F
100
AcDbEntity
  8
0
  6
Continuous
 62
     7
370
    25
100
AcDbLine
 10
422.1329242207
 20
380.2332026302
 30
0.0
 11
422.2233095109
 21
375.3026374642
 31
0.0
  0
LINE
  5
3D2
330
1F
100
AcDbEntity
  8
0
  6
Continuous
 62
     7
370
    25
100
AcDbLine
 10
411.4576367084
 20
351.9382665924
 30
0.0
 11
439.3267841254
 21
335.8497502423
 31
0.0
  0
LINE
  5
3D3
330
1F
100
AcDbEntity
  8
0
  6
Continuous
 62
     7
370
    25
100
AcDbLine
 10
404.9049810419
 20
327.7406516968
 30
0.0
 11
411.4576367084
 21
351.9382665924
 31
0.0
  0
ELLIPSE
  5
3D4
330
1F
100
AcDbEntity
  8
0
  6
Continuous
 62
     7
370
    25
100
AcDbEllipse
 10
449.8745328551
 20
355.3427285044
 30
0.0
 11
-0.2061300555366757
 21
0.3428480592082223
 31
0.0
210
0.0
220
0.0
230
1.0
 40
0.5651676105
 41
5.378795634223693
 42
5.487824360410555
  0
ELLIPSE
  5
3D5
330
1F
100
AcDbEntity
  8
0
  6
Continuous
 62
     7
370
    25
100
AcDbEllipse
 10
449.8745328551
 20
355.3427285044
 30
0.0
 11
-0.2061300555366757
 21
0.3428480592082223
 31
0.0
210
0.0
220
0.0
230
1.0
 40
0.5651676105
 41
5.487824360410555
 42
8.759210973667932
  0
LINE
  5
3D6
330
1F
100
AcDbEntity
  8
0
  6
Continuous
 62
     7
370
    25
100
AcDbLine
 10
404.9049810419
 20
327.7406516968
 30
0.0
 11
392.2285891894
 21
335.0585769468
 31
0.0
  0
LINE
  5
3D7
330
1F
100
AcDbEntity
  8
0
  6
Continuous
 62
     7
370
    25
100
AcDbLine
 10
428.29103503
 20
383.78820433
 30
0.0
 11
428.29103503
 21
378.8054608467
 31
0.0
  0
LINE
  5
3D8
330
1F
100
AcDbEntity
  8
0
  6
Continuous
 62
     7
370
    25
100
AcDbLine
 10
360.0430639261
 20
344.389489237
 30
0.0
 11
365.9242169293
 21
324.0149221388
 31
0.0
  0
LINE
  5
3D9
330
1F
100
AcDbEntity
  8
0
  6
Continuous
 62
     7
370
    25
100
AcDbLine
 10
365.9242169293
 20
324.0149221388
 30
0.0
 11
345.6958454419
 21
312.3373318437
 31
0.0
  0
LINE
  5
3DA
330
1F
100
AcDbEntity
  8
0
  6
Continuous
 62
     7
370
    25
100
AcDbLine
 10
408.4920451567
 20
329.8114197328
 30
0.0
 11
414.3903103803
 21
350.2452701181
 31
0.0
  0
LINE
  5
3DB
330
1F
100
AcDbEntity
  8
0
  6
Continuous
 62
     7
370
    25
100
AcDbLine
 10
418.6795003513
 20
323.9303270315
 30
0.0
 11
408.4920451567
 21
329.8114197328
 31
0.0
  0
LINE
  5
3DC
330
1F
100
AcDbEntity
  8
0
  6
Continuous
 62
     7
370
    25
100
AcDbLine
 10
369.5112810441
 20
321.9441541029
 30
0.0
 11
365.9242169293
 21
324.0149221388
 31
0.0
  0
LINE
  5
3DD
330
1F
100
AcDbEntity
  8
0
  6
Continuous
 62
     7
370
    25
100
AcDbLine
 10
408.4920451567
 20
329.8114197328
 30
0.0
 11
404.9049810419
 21
327.7406516968
 31
0.0
  0
LINE
  5
3DE
330
1F
100
AcDbEntity
  8
0
  6
PHANTOM
 62
     1
370
    18
100
AcDbLine
 10
357.3328695379
 20
374.9515685
 30
0.0
 11
357.3328695379
 21
374.3800828218
 31
0.0
  0
LINE
  5
3DF
330
1F
100
AcDbEntity
  8
0
  6
PHANTOM
 62
     1
370
    18
100
AcDbLine
 10
356.1307880099
 20
375.6455153951
 30
0.0
 11
356.1307880099
 21
374.3392624162
 31
0.0
  0
LINE
  5
3E0
330
1F
100
AcDbEntity
  8
0
  6
PHANTOM
 62
     1
370
    18
100
AcDbLine
 10
354.99941716
 20
375.5638745839
 30
0.0
 11
354.99941716
 21
374.9923889056
 31
0.0
  0
LINE
  5
3E1
330
1F
100
AcDbEntity
  8
0
  6
PHANTOM
 62
     1
370
    18
100
AcDbLine
 10
355.1408385162
 20
375.6455153951
 30
0.0
 11
355.1408385162
 21
374.9107480944
 31
0.0
  0
LINE
  5
3E2
330
1F
100
AcDbEntity
  8
0
  6
PHANTOM
 62
     1
370
    18
100
AcDbLine
 10
369.919370243
 20
382.2176006953
 30
0.0
 11
369.919370243
 21
381.646115017
 31
0.0
  0
LINE
  5
3E3
330
1F
100
AcDbEntity
  8
0
  6
PHANTOM
 62
     1
370
    18
100
AcDbLine
 10
368.717288715
 20
382.9115475903
 30
0.0
 11
368.717288715
 21
381.6052946114
 31
0.0
  0
LINE
  5
3E4
330
1F
100
AcDbEntity
  8
0
  6
PHANTOM
 62
     1
370
    18
100
AcDbLine
 10
367.5859178651
 20
382.8299067791
 30
0.0
 11
367.5859178651
 21
382.2584211008
 31
0.0
  0
LINE
  5
3E5
330
1F
100
AcDbEntity
  8
0
  6
PHANTOM
 62
     1
370
    18
100
AcDbLine
 10
367.7273392213
 20
382.9115475903
 30
0.0
 11
367.7273392213
 21
382.1767802897
 31
0.0
  0
LINE
  5
3E6
330
1F
100
AcDbEntity
  8
0
  6
PHANTOM
 62
     1
370
    18
100
AcDbLine
 10
446.7683621015
 20
361.1680941571
 30
0.0
 11
449.5967892262
 21
359.5352779334
 31
0.0
  0
LINE
  5
3E7
330
1F
100
AcDbEntity
  8
0
  6
PHANTOM
 62
     1
370
    18
100
AcDbLine
 10
449.5967892262
 20
359.5352779334
 30
0.0
 11
449.8795699066
 21
359.7053638817
 31
0.0
  0
LINE
  5
3E8
330
1F
100
AcDbEntity
  8
0
  6
PHANTOM
 62
     1
370
    18
100
AcDbLine
 10
448.695347964
 20
361.0033194611
 30
0.0
 11
448.9781286444
 21
361.1734054093
 31
0.0
  0
LINE
  5
3E9
330
1F
100
AcDbEntity
  8
0
  6
PHANTOM
 62
     1
370
    18
100
AcDbLine
 10
449.9540738825
 20
359.5670490497
 30
0.0
 11
449.7706318366
 21
359.2125433255
 31
0.0
  0
LINE
  5
3EA
330
1F
100
AcDbEntity
  8
0
  6
PHANTOM
 62
     1
370
    18
100
AcDbLine
 10
447.6346877922
 20
361.615625545
 30
0.0
 11
447.9174684726
 21
361.7857114932
 31
0.0
  0
LINE
  5
3EB
330
1F
100
AcDbEntity
  8
0
  6
PHANTOM
 62
     1
370
    18
100
AcDbLine
 10
449.9302116182
 20
359.5808244416
 30
0.0
 11
449.9540738825
 21
359.5670490497
 31
0.0
  0
LINE
  5
3EC
330
1F
100
AcDbEntity
  8
0
  6
PHANTOM
 62
     1
370
    18
100
AcDbLine
 10
450.8251419625
 20
358.7837174297
 30
0.0
 11
451.0085840084
 21
359.1382231539
 31
0.0
  0
LINE
  5
3ED
330
1F
100
AcDbEntity
  8
0
  6
PHANTOM
 62
     1
370
    18
100
AcDbLine
 10
449.8780019955
 20
359.7908942575
 30
0.0
 11
451.0085840084
 21
359.1382231539
 31
0.0
  0
LINE
  5
3EE
330
1F
100
AcDbEntity
  8
0
  6
PHANTOM
 62
     1
370
    18
100
AcDbLine
 10
451.1824266188
 20
358.815488546
 30
0.0
 11
450.8996459384
 21
358.6454025978
 31
0.0
  0
LINE
  5
3EF
330
1F
100
AcDbEntity
  8
0
  6
PHANTOM
 62
     1
370
    18
100
AcDbLine
 10
450.26659277
 20
359.0108564129
 30
0.0
 11
450.8996459384
 21
358.6454025978
 31
0.0
  0
LINE
  5
3F0
330
1F
100
AcDbEntity
  8
0
  6
PHANTOM
 62
     1
370
    18
100
AcDbLine
 10
449.1994840608
 20
355.978020286
 30
0.0
 11
449.4822647412
 21
356.1481062342
 31
0.0
  0
LINE
  5
3F1
330
1F
100
AcDbEntity
  8
0
  6
PHANTOM
 62
     1
370
    18
100
AcDbLine
 10
449.2216968514
 20
354.7663008606
 30
0.0
 11
449.5044775318
 21
354.9363868088
 31
0.0
  0
LINE
  5
3F2
330
1F
100
AcDbEntity
  8
0
  6
PHANTOM
 62
     1
370
    18
100
AcDbLine
 10
359.6946327771
 20
307.6427078615
 30
0.0
 11
356.8662056523
 21
309.2755240852
 31
0.0
  0
LINE
  5
3F3
330
1F
100
AcDbEntity
  8
0
  6
PHANTOM
 62
     1
370
    18
100
AcDbLine
 10
359.6946327771
 20
307.6427078615
 30
0.0
 11
359.9774134575
 21
307.7991135373
 31
0.0
  0
LINE
  5
3F4
330
1F
100
AcDbEntity
  8
0
  6
PHANTOM
 62
     1
370
    18
100
AcDbLine
 10
359.1110877668
 20
309.287426853
 30
0.0
 11
358.8283070864
 21
309.1310211772
 31
0.0
  0
LINE
  5
3F5
330
1F
100
AcDbEntity
  8
0
  6
PHANTOM
 62
     1
370
    18
100
AcDbLine
 10
359.6201288012
 20
307.41837257
 30
0.0
 11
356.7917016765
 21
309.0511887937
 31
0.0
  0
LINE
  5
3F6
330
1F
100
AcDbEntity
  8
0
  6
PHANTOM
 62
     1
370
    18
100
AcDbLine
 10
358.5656186753
 20
305.7720351983
 30
0.0
 11
355.7371915505
 21
307.404851422
 31
0.0
  0
LINE
  5
3F7
330
1F
100
AcDbEntity
  8
0
  6
PHANTOM
 62
     1
370
    18
100
AcDbLine
 10
358.5656186753
 20
305.7720351983
 30
0.0
 11
358.7490607212
 21
305.6293271521
 31
0.0
  0
LINE
  5
3F8
330
1F
100
AcDbEntity
  8
0
  6
PHANTOM
 62
     1
370
    18
100
AcDbLine
 10
359.8035708471
 20
307.2756645238
 30
0.0
 11
359.6201288012
 21
307.41837257
 31
0.0
  0
LINE
  5
3F9
330
1F
100
AcDbEntity
  8
0
  6
PHANTOM
 62
     1
370
    18
100
AcDbLine
 10
358.3917760649
 20
305.2485861848
 30
0.0
 11
355.5633489402
 21
306.8814024084
 31
0.0
  0
LINE
  5
3FA
330
1F
100
AcDbEntity
  8
0
  6
PHANTOM
 62
     1
370
    18
100
AcDbLine
 10
358.6745567453
 20
305.4049918606
 30
0.0
 11
358.3917760649
 21
305.2485861848
 31
0.0
  0
LINE
  5
3FB
330
1F
100
AcDbEntity
  8
0
  6
PHANTOM
 62
     1
370
    18
100
AcDbLine
 10
358.050427595
 20
309.8997329369
 30
0.0
 11
357.7676469146
 21
309.7433272611
 31
0.0
  0
LINE
  5
3FC
330
1F
100
AcDbEntity
  8
0
  6
PHANTOM
 62
     1
370
    18
100
AcDbLine
 10
318.8662606413
 20
352.7452678585
 30
0.0
 11
318.8662606413
 21
352.1737821802
 31
0.0
  0
LINE
  5
3FD
330
1F
100
AcDbEntity
  8
0
  6
PHANTOM
 62
     1
370
    18
100
AcDbLine
 10
317.6641791133
 20
353.4392147535
 30
0.0
 11
317.6641791133
 21
352.1329617746
 31
0.0
  0
LINE
  5
3FE
330
1F
100
AcDbEntity
  8
0
  6
PHANTOM
 62
     1
370
    18
100
AcDbLine
 10
316.5328082634
 20
353.3575739423
 30
0.0
 11
316.5328082634
 21
352.786088264
 31
0.0
  0
LINE
  5
3FF
330
1F
100
AcDbEntity
  8
0
  6
PHANTOM
 62
     1
370
    18
100
AcDbLine
 10
316.6742296197
 20
353.4392147535
 30
0.0
 11
316.6742296197
 21
352.7044474529
 31
0.0
  0
LINE
  5
400
330
1F
100
AcDbEntity
  8
0
  6
PHANTOM
 62
     1
370
    18
100
AcDbLine
 10
341.6350989955
 20
365.8894384588
 30
0.0
 11
341.6350989955
 21
365.3179527805
 31
0.0
  0
LINE
  5
401
330
1F
100
AcDbEntity
  8
0
  6
PHANTOM
 62
     1
370
    18
100
AcDbLine
 10
340.4330174675
 20
366.5833853538
 30
0.0
 11
340.4330174675
 21
365.2771323749
 31
0.0
  0
LINE
  5
402
330
1F
100
AcDbEntity
  8
0
  6
PHANTOM
 62
     1
370
    18
100
AcDbLine
 10
339.3016466176
 20
366.5017445427
 30
0.0
 11
339.3016466176
 21
365.9302588644
 31
0.0
  0
LINE
  5
403
330
1F
100
AcDbEntity
  8
0
  6
PHANTOM
 62
     1
370
    18
100
AcDbLine
 10
339.4430679739
 20
366.5833853538
 30
0.0
 11
339.4430679739
 21
365.8486180532
 31
0.0
  0
LINE
  5
404
330
1F
100
AcDbEntity
  8
0
  6
PHANTOM
 62
     1
370
    18
100
AcDbLine
 10
408.3859791396
 20
404.4239013368
 30
0.0
 11
408.3859791396
 21
403.8524156586
 31
0.0
  0
LINE
  5
405
330
1F
100
AcDbEntity
  8
0
  6
PHANTOM
 62
     1
370
    18
100
AcDbLine
 10
407.1838976115
 20
405.1178482319
 30
0.0
 11
407.1838976115
 21
403.811595253
 31
0.0
  0
LINE
  5
406
330
1F
100
AcDbEntity
  8
0
  6
PHANTOM
 62
     1
370
    18
100
AcDbLine
 10
406.0525267616
 20
405.0362074207
 30
0.0
 11
406.0525267616
 21
404.4647217424
 31
0.0
  0
LINE
  5
407
330
1F
100
AcDbEntity
  8
0
  6
PHANTOM
 62
     1
370
    18
100
AcDbLine
 10
406.1939481179
 20
405.1178482319
 30
0.0
 11
406.1939481179
 21
404.3830809312
 31
0.0
  0
LINE
  5
408
330
1F
100
AcDbEntity
  8
0
  6
PHANTOM
 62
     1
370
    18
100
AcDbLine
 10
385.6171407853
 20
391.2797307365
 30
0.0
 11
385.6171407853
 21
390.7082450582
 31
0.0
  0
LINE
  5
409
330
1F
100
AcDbEntity
  8
0
  6
PHANTOM
 62
     1
370
    18
100
AcDbLine
 10
384.4150592573
 20
391.9736776315
 30
0.0
 11
384.4150592573
 21
390.6674246526
 31
0.0
  0
LINE
  5
40A
330
1F
100
AcDbEntity
  8
0
  6
PHANTOM
 62
     1
370
    18
100
AcDbLine
 10
383.2836884074
 20
391.8920368204
 30
0.0
 11
383.2836884074
 21
391.3205511421
 31
0.0
  0
LINE
  5
40B
330
1F
100
AcDbEntity
  8
0
  6
PHANTOM
 62
     1
370
    18
100
AcDbLine
 10
383.4251097637
 20
391.9736776315
 30
0.0
 11
383.4251097637
 21
391.2389103309
 31
0.0
  0
LINE
  5
40C
330
1F
100
AcDbEntity
  8
0
  6
PHANTOM
 62
     1
370
    18
100
AcDbLine
 10
293.3043505014
 20
351.9075604534
 30
0.0
 11
322.225017852
 21
335.2120145666
 31
0.0
  0
LINE
  5
40D
330
1F
100
AcDbEntity
  8
0
  6
PHANTOM
 62
     1
370
    18
100
AcDbLine
 10
322.2674511543
 20
335.3344956881
 30
0.0
 11
322.225017852
 21
335.3099994641
 31
0.0
  0
LINE
  5
40E
330
1F
100
AcDbEntity
  8
0
  6
PHANTOM
 62
     1
370
    18
100
AcDbLine
 10
322.3098706657
 20
335.2609990533
 30
0.0
 11
322.225017852
 21
335.2120145666
 31
0.0
  0
LINE
  5
40F
330
1F
100
AcDbEntity
  8
0
  6
PHANTOM
 62
     1
370
    18
100
AcDbLine
 10
286.7989681145
 20
355.4180755242
 30
0.0
 11
286.7989681145
 21
355.0914591995
 31
0.0
  0
LINE
  5
410
330
1F
100
AcDbEntity
  8
0
  6
PHANTOM
 62
     1
370
    18
100
AcDbLine
 10
286.7989681145
 20
355.4180755242
 30
0.0
 11
287.0111346291
 21
355.540556646
 31
0.0
  0
LINE
  5
411
330
1F
100
AcDbEntity
  8
0
  6
PHANTOM
 62
     1
370
    18
100
AcDbLine
 10
286.5868360802
 20
355.7854989846
 30
0.0
 11
286.3039933677
 21
355.9487806069
 31
0.0
  0
ENDSEC
  0
SECTION
  2
OBJECTS
  0
DICTIONARY
  5
C
330
0
100
AcDbDictionary
281
     1
  3
ACAD_DETAILVIEWSTYLE
350
419
  3
ACAD_GROUP
350
D
  3
ACAD_LAYOUT
350
1A
  3
ACAD_MATERIAL
350
43
  3
ACAD_MLEADERSTYLE
350
6B
  3
ACAD_MLINESTYLE
350
17
  3
ACAD_PLOTSETTINGS
350
19
  3
ACAD_PLOTSTYLENAME
350
E
  3
ACAD_SCALELIST
350
47
  3
ACAD_SECTIONVIEWSTYLE
350
41A
  3
ACAD_TABLESTYLE
350
69
  3
ACAD_VISUALSTYLE
350
2A
  3
ACDB_RECOMPOSE_DATA
350
416
  3
AcDbVariableDictionary
350
412
  0
SUN
  5
6D
330
29
100
AcDbSun
 90
        1
290
     0
 63
     7
421
 16777215
 40
1.0
291
     1
 91
  2455826
 92
 54000000
292
     0
 70
     2
 71
   256
280
     1
  0
DICTIONARY
  5
419
102
{ACAD_REACTORS
330
C
102
}
330
C
100
AcDbDictionary
281
     1
  0
DICTIONARY
  5
D
102
{ACAD_REACTORS
330
C
102
}
330
C
100
AcDbDictionary
281
     1
  0
DICTIONARY
  5
1A
102
{ACAD_REACTORS
330
C
102
}
330
C
100
AcDbDictionary
281
     1
  3
Layout1
350
1E
  3
Layout2
350
26
  3
Model
350
22
  0
DICTIONARY
  5
43
102
{ACAD_REACTORS
330
C
102
}
330
C
100
AcDbDictionary
281
     1
  3
ByBlock
350
45
  3
ByLayer
350
44
  3
Global
350
46
  0
DICTIONARY
  5
6B
102
{ACAD_REACTORS
330
C
102
}
330
C
100
AcDbDictionary
281
     1
  3
Standard
350
6C
  0
DICTIONARY
  5
17
102
{ACAD_REACTORS
330
C
102
}
330
C
100
AcDbDictionary
281
     1
  3
Standard
350
18
  0
DICTIONARY
  5
19
102
{ACAD_REACTORS
330
C
102
}
330
C
100
AcDbDictionary
281
     1
  0
ACDBDICTIONARYWDFLT
  5
E
102
{ACAD_REACTORS
330
C
102
}
330
C
100
AcDbDictionary
281
     1
  3
Normal
350
F
100
AcDbDictionaryWithDefault
340
F
  0
DICTIONARY
  5
47
102
{ACAD_REACTORS
330
C
102
}
330
C
100
AcDbDictionary
281
     1
  3
A0
350
48
  3
A1
350
49
  3
A2
350
4A
  3
A3
350
4B
  3
A4
350
4C
  3
A5
350
4D
  3
A6
350
4E
  3
A7
350
4F
  3
A8
350
50
  3
A9
350
51
  3
B0
350
52
  3
B1
350
53
  3
B2
350
54
  3
B3
350
55
  3
B4
350
56
  3
B5
350
57
  3
B6
350
58
  3
B7
350
59
  3
B8
350
5A
  3
B9
350
5B
  3
C0
350
5C
  3
C1
350
5D
  3
C2
350
5E
  3
C3
350
5F
  3
C4
350
60
  3
C5
350
61
  3
C6
350
62
  3
C7
350
63
  3
C8
350
64
  3
C9
350
65
  3
D0
350
66
  3
D1
350
67
  3
D2
350
68
  0
DICTIONARY
  5
41A
102
{ACAD_REACTORS
330
C
102
}
330
C
100
AcDbDictionary
281
     1
  0
DICTIONARY
  5
69
102
{ACAD_REACTORS
330
C
102
}
330
C
100
AcDbDictionary
281
     1
  3
Standard
350
6A
  0
DICTIONARY
  5
2A
102
{ACAD_REACTORS
330
C
102
}
330
C
100
AcDbDictionary
281
     1
  3
2dWireframe
350
2F
  3
Basic
350
32
  3
Brighten
350
36
  3
ColorChange
350
3A
  3
Conceptual
350
34
  3
Dim
350
35
  3
EdgeColorOff
350
3D
  3
Facepattern
350
39
  3
Flat
350
2B
  3
FlatWithEdges
350
2C
  3
Gouraud
350
2D
  3
GouraudWithEdges
350
2E
  3
Hidden
350
31
  3
JitterOff
350
3B
  3
Linepattern
350
38
  3
OverhangOff
350
3C
  3
Realistic
350
33
  3
Shaded
350
42
  3
Shaded with edges
350
41
  3
Shades of Gray
350
3E
  3
Sketchy
350
3F
  3
Thicken
350
37
  3
Wireframe
350
30
  3
X-Ray
350
40
  0
XRECORD
  5
416
102
{ACAD_REACTORS
330
C
102
}
330
C
100
AcDbXrecord
280
     1
 90
        1
330
6A
  0
DICTIONARY
  5
412
102
{ACAD_REACTORS
330
C
102
}
330
C
100
AcDbDictionary
281
     1
  3
CANNOSCALE
350
413
  3
CMLEADERSTYLE
350
418
  3
CTABLESTYLE
350
417
  3
SECTIONTHICKNESSINC
350
41B
  0
LAYOUT
  5
1E
102
{ACAD_REACTORS
330
1A
102
}
330
1A
100
AcDbPlotSettings
  1

  2
none_device
  4

  6

 40
0.0
 41
0.0
 42
0.0
 43
0.0
 44
0.0
 45
0.0
 46
0.0
 47
0.0
 48
0.0
 49
0.0
140
0.0
141
0.0
142
1.0
143
1.0
 70
   688
 72
     1
 73
     0
 74
     5
  7

 75
    16
 76
     0
 77
     2
 78
   300
147
1.0
148
0.0
149
0.0
100
AcDbLayout
  1
Layout1
 70
     1
 71
     1
 10
0.0
 20
0.0
 11
420.0
 21
297.0
 12
0.0
 22
0.0
 32
0.0
 14
1.0000000000E+20
 24
1.0000000000E+20
 34
1.0000000000E+20
 15
-1.0000000000E+20
 25
-1.0000000000E+20
 35
-1.0000000000E+20
146
0.0
 13
0.0
 23
0.0
 33
0.0
 16
1.0
 26
0.0
 36
0.0
 17
0.0
 27
1.0
 37
0.0
 76
     0
330
1B
  0
LAYOUT
  5
26
102
{ACAD_REACTORS
330
1A
102
}
330
1A
100
AcDbPlotSettings
  1

  2
none_device
  4

  6

 40
0.0
 41
0.0
 42
0.0
 43
0.0
 44
0.0
 45
0.0
 46
0.0
 47
0.0
 48
0.0
 49
0.0
140
0.0
141
0.0
142
1.0
143
1.0
 70
   688
 72
     1
 73
     0
 74
     5
  7

 75
    16
 76
     0
 77
     2
 78
   300
147
1.0
148
0.0
149
0.0
100
AcDbLayout
  1
Layout2
 70
     1
 71
     2
 10
0.0
 20
0.0
 11
0.0
 21
0.0
 12
0.0
 22
0.0
 32
0.0
 14
0.0
 24
0.0
 34
0.0
 15
0.0
 25
0.0
 35
0.0
146
0.0
 13
0.0
 23
0.0
 33
0.0
 16
1.0
 26
0.0
 36
0.0
 17
0.0
 27
1.0
 37
0.0
 76
     0
330
23
  0
LAYOUT
  5
22
102
{ACAD_REACTORS
330
1A
102
}
330
1A
100
AcDbPlotSettings
  1

  2
none_device
  4
Letter_(8.50_x_11.00_Inches)
  6

 40
6.35
 41
6.35
 42
6.35000508
 43
6.35000508
 44
215.9
 45
279.4
 46
0.0
 47
0.0
 48
0.0
 49
0.0
140
0.0
141
0.0
142
1.0
143
1.0
 70
  1712
 72
     1
 73
     0
 74
     0
  7

 75
     0
 76
     0
 77
     2
 78
   300
147
1.0
148
0.0
149
0.0
100
AcDbLayout
  1
Model
 70
     1
 71
     0
 10
0.0
 20
0.0
 11
594.0
 21
420.0
 12
0.0
 22
0.0
 32
0.0
 14
0.0
 24
0.0
 34
0.0
 15
594.0
 25
420.0
 35
0.0
146
0.0
 13
0.0
 23
0.0
 33
0.0
 16
1.0
 26
0.0
 36
0.0
 17
0.0
 27
1.0
 37
0.0
 76
     0
330
1F
331
29
  0
MATERIAL
  5
45
102
{ACAD_REACTORS
330
43
102
}
330
43
100
AcDbMaterial
  1
ByBlock
 72
     1
 94
      127
  0
MATERIAL
  5
44
102
{ACAD_REACTORS
330
43
102
}
330
43
100
AcDbMaterial
  1
ByLayer
 72
     1
 94
      127
  0
MATERIAL
  5
46
102
{ACAD_REACTORS
330
43
102
}
330
43
100
AcDbMaterial
  1
Global
 72
     1
 94
      127
  0
MLEADERSTYLE
  5
6C
102
{ACAD_REACTORS
330
6B
102
}
330
6B
100
AcDbMLeaderStyle
179
     2
170
     2
171
     1
172
     0
 90
        2
 40
0.0
 41
0.0
173
     1
 91
-1056964608
340
14
 92
       -2
290
     1
 42
2.0
291
     1
 43
8.0
  3
Standard
341
0
 44
4.0
300

342
11
174
     1
178
     6
175
     1
176
     0
 93
-1056964608
 45
4.0
292
     0
297
     0
 46
4.0
343
0
 94
-1056964608
 47
1.0
 49
1.0
140
1.0
293
     1
141
0.0
294
     1
177
     0
142
1.0
295
     0
296
     0
143
3.75
271
     0
272
     9
273
     9
298
     0
  0
MLINESTYLE
  5
18
102
{ACAD_REACTORS
330
17
102
}
330
17
100
AcDbMlineStyle
  2
Standard
 70
     0
  3

 62
   256
 51
90.0
 52
90.0
 71
     2
 49
0.5
 62
   256
  6
BYLAYER
 49
-0.5
 62
   256
  6
BYLAYER
  0
ACDBPLACEHOLDER
  5
F
102
{ACAD_REACTORS
330
E
102
}
330
E
  0
SCALE
  5
48
102
{ACAD_REACTORS
330
47
102
}
330
47
100
AcDbScale
 70
     0
300
1:1
140
1.0
141
1.0
290
     1
  0
SCALE
  5
49
102
{ACAD_REACTORS
330
47
102
}
330
47
100
AcDbScale
 70
     0
300
1:2
140
1.0
141
2.0
290
     0
  0
SCALE
  5
4A
102
{ACAD_REACTORS
330
47
102
}
330
47
100
AcDbScale
 70
     0
300
1:4
140
1.0
141
4.0
290
     0
  0
SCALE
  5
4B
102
{ACAD_REACTORS
330
47
102
}
330
47
100
AcDbScale
 70
     0
300
1:5
140
1.0
141
5.0
290
     0
  0
SCALE
  5
4C
102
{ACAD_REACTORS
330
47
102
}
330
47
100
AcDbScale
 70
     0
300
1:8
140
1.0
141
8.0
290
     0
  0
SCALE
  5
4D
102
{ACAD_REACTORS
330
47
102
}
330
47
100
AcDbScale
 70
     0
300
1:10
140
1.0
141
10.0
290
     0
  0
SCALE
  5
4E
102
{ACAD_REACTORS
330
47
102
}
330
47
100
AcDbScale
 70
     0
300
1:16
140
1.0
141
16.0
290
     0
  0
SCALE
  5
4F
102
{ACAD_REACTORS
330
47
102
}
330
47
100
AcDbScale
 70
     0
300
1:20
140
1.0
141
20.0
290
     0
  0
SCALE
  5
50
102
{ACAD_REACTORS
330
47
102
}
330
47
100
AcDbScale
 70
     0
300
1:30
140
1.0
141
30.0
290
     0
  0
SCALE
  5
51
102
{ACAD_REACTORS
330
47
102
}
330
47
100
AcDbScale
 70
     0
300
1:40
140
1.0
141
40.0
290
     0
  0
SCALE
  5
52
102
{ACAD_REACTORS
330
47
102
}
330
47
100
AcDbScale
 70
     0
300
1:50
140
1.0
141
50.0
290
     0
  0
SCALE
  5
53
102
{ACAD_REACTORS
330
47
102
}
330
47
100
AcDbScale
 70
     0
300
1:100
140
1.0
141
100.0
290
     0
  0
SCALE
  5
54
102
{ACAD_REACTORS
330
47
102
}
330
47
100
AcDbScale
 70
     0
300
2:1
140
2.0
141
1.0
290
     0
  0
SCALE
  5
55
102
{ACAD_REACTORS
330
47
102
}
330
47
100
AcDbScale
 70
     0
300
4:1
140
4.0
141
1.0
290
     0
  0
SCALE
  5
56
102
{ACAD_REACTORS
330
47
102
}
330
47
100
AcDbScale
 70
     0
300
8:1
140
8.0
141
1.0
290
     0
  0
SCALE
  5
57
102
{ACAD_REACTORS
330
47
102
}
330
47
100
AcDbScale
 70
     0
300
10:1
140
10.0
141
1.0
290
     0
  0
SCALE
  5
58
102
{ACAD_REACTORS
330
47
102
}
330
47
100
AcDbScale
 70
     0
300
100:1
140
100.0
141
1.0
290
     0
  0
SCALE
  5
59
102
{ACAD_REACTORS
330
47
102
}
330
47
100
AcDbScale
 70
     0
300
1/128" = 1'-0"
140
0.0078125
141
12.0
290
     0
  0
SCALE
  5
5A
102
{ACAD_REACTORS
330
47
102
}
330
47
100
AcDbScale
 70
     0
300
1/64" = 1'-0"
140
0.015625
141
12.0
290
     0
  0
SCALE
  5
5B
102
{ACAD_REACTORS
330
47
102
}
330
47
100
AcDbScale
 70
     0
300
1/32" = 1'-0"
140
0.03125
141
12.0
290
     0
  0
SCALE
  5
5C
102
{ACAD_REACTORS
330
47
102
}
330
47
100
AcDbScale
 70
     0
300
1/16" = 1'-0"
140
0.0625
141
12.0
290
     0
  0
SCALE
  5
5D
102
{ACAD_REACTORS
330
47
102
}
330
47
100
AcDbScale
 70
     0
300
3/32" = 1'-0"
140
0.09375
141
12.0
290
     0
  0
SCALE
  5
5E
102
{ACAD_REACTORS
330
47
102
}
330
47
100
AcDbScale
 70
     0
300
1/8" = 1'-0"
140
0.125
141
12.0
290
     0
  0
SCALE
  5
5F
102
{ACAD_REACTORS
330
47
102
}
330
47
100
AcDbScale
 70
     0
300
3/16" = 1'-0"
140
0.1875
141
12.0
290
     0
  0
SCALE
  5
60
102
{ACAD_REACTORS
330
47
102
}
330
47
100
AcDbScale
 70
     0
300
1/4" = 1'-0"
140
0.25
141
12.0
290
     0
  0
SCALE
  5
61
102
{ACAD_REACTORS
330
47
102
}
330
47
100
AcDbScale
 70
     0
300
3/8" = 1'-0"
140
0.375
141
12.0
290
     0
  0
SCALE
  5
62
102
{ACAD_REACTORS
330
47
102
}
330
47
100
AcDbScale
 70
     0
300
1/2" = 1'-0"
140
0.5
141
12.0
290
     0
  0
SCALE
  5
63
102
{ACAD_REACTORS
330
47
102
}
330
47
100
AcDbScale
 70
     0
300
3/4" = 1'-0"
140
0.75
141
12.0
290
     0
  0
SCALE
  5
64
102
{ACAD_REACTORS
330
47
102
}
330
47
100
AcDbScale
 70
     0
300
1" = 1'-0"
140
1.0
141
12.0
290
     0
  0
SCALE
  5
65
102
{ACAD_REACTORS
330
47
102
}
330
47
100
AcDbScale
 70
     0
300
1-1/2" = 1'-0"
140
1.5
141
12.0
290
     0
  0
SCALE
  5
66
102
{ACAD_REACTORS
330
47
102
}
330
47
100
AcDbScale
 70
     0
300
3" = 1'-0"
140
3.0
141
12.0
290
     0
  0
SCALE
  5
67
102
{ACAD_REACTORS
330
47
102
}
330
47
100
AcDbScale
 70
     0
300
6" = 1'-0"
140
6.0
141
12.0
290
     0
  0
SCALE
  5
68
102
{ACAD_REACTORS
330
47
102
}
330
47
100
AcDbScale
 70
     0
300
1'-0" = 1'-0"
140
12.0
141
12.0
290
     0
  0
TABLESTYLE
  5
6A
102
{ACAD_REACTORS
330
69
102
}
102
{ACAD_XDICTIONARY
360
414
102
}
330
69
100
AcDbTableStyle
  3
Standard
 70
     0
 71
     0
 40
0.06
 41
0.06
280
     0
281
     0
  7
Standard
140
4.5
170
     2
 62
     0
 63
   257
283
     0
 90
        4
 91
        0
  1

274
    -2
284
     1
 64
     0
275
    -2
285
     1
 65
     0
276
    -2
286
     1
 66
     0
277
    -2
287
     1
 67
     0
278
    -2
288
     1
 68
     0
279
    -2
289
     1
 69
     0
  7
Standard
140
6.0
170
     5
 62
     0
 63
   257
283
     0
 90
        4
 91
        0
  1

274
    -2
284
     1
 64
     0
275
    -2
285
     1
 65
     0
276
    -2
286
     1
 66
     0
277
    -2
287
     1
 67
     0
278
    -2
288
     1
 68
     0
279
    -2
289
     1
 69
     0
  7
Standard
140
4.5
170
     5
 62
     0
 63
   257
283
     0
 90
        4
 91
        0
  1

274
    -2
284
     1
 64
     0
275
    -2
285
     1
 65
     0
276
    -2
286
     1
 66
     0
277
    -2
287
     1
 67
     0
278
    -2
288
     1
 68
     0
279
    -2
289
     1
 69
     0
  0
VISUALSTYLE
  5
2F
102
{ACAD_REACTORS
330
2A
102
}
330
2A
100
AcDbVisualStyle
  2
2dWireframe
 70
     4
177
     3
291
     0
 70
    58
 90
        0
176
     1
 90
        2
176
     1
 90
        0
176
     1
 90
        0
176
     1
 40
0.6
176
     1
 40
30.0
176
     1
 62
     7
420
 16777215
176
     1
 90
        1
176
     1
 90
        4
176
     1
 62
     7
176
     1
 62
   257
176
     1
 90
        1
176
     1
 90
        1
176
     1
 40
1.0
176
     1
 90
        0
176
     1
 62
   257
176
     1
 40
1.0
176
     1
 90
        1
176
     1
 90
        6
176
     1
 90
        2
176
     1
 62
     7
176
     1
 90
        5
176
     1
 90
        0
176
     1
 90
        0
176
     1
290
     0
176
     1
 90
        1
176
     1
 40
0.0
176
     1
 90
        0
176
     1
290
     1
176
     1
290
     1
176
     1
290
     0
176
     1
290
     0
176
     1
290
     0
176
     1
290
     0
176
     1
290
     0
176
     1
290
     0
176
     1
290
     0
176
     1
 90
       50
176
     1
 40
0.0
176
     1
 40
1.0
176
     1
 90
        0
176
     1
 62
    18
420
        0
176
     1
 90
       50
176
     1
 90
        3
176
     1
 62
     5
420
      255
176
     1
290
     0
176
     1
 90
       50
176
     1
 90
       50
176
     1
 90
       50
176
     1
290
     0
176
     1
 90
       50
176
     1
 62
   256
176
     0
 40
1.0
176
     0
 90
        2
176
     1
  1
strokes_ogs.tif
176
     1
290
     0
176
     1
 40
1.0
176
     1
 40
1.0
176
     1
  0
VISUALSTYLE
  5
32
102
{ACAD_REACTORS
330
2A
102
}
330
2A
100
AcDbVisualStyle
  2
Basic
 70
     7
177
     3
291
     1
 70
    58
 90
        1
176
     1
 90
        0
176
     1
 90
        1
176
     1
 90
        0
176
     1
 40
0.6
176
     1
 40
30.0
176
     1
 62
     7
420
 16777215
176
     1
 90
        0
176
     1
 90
        4
176
     1
 62
     7
176
     1
 62
   257
176
     1
 90
        1
176
     1
 90
        1
176
     1
 40
1.0
176
     1
 90
        8
176
     1
 62
     7
176
     1
 40
1.0
176
     1
 90
        1
176
     1
 90
        6
176
     1
 90
        2
176
     1
 62
     7
176
     1
 90
        5
176
     1
 90
        0
176
     1
 90
        0
176
     1
290
     0
176
     1
 90
        1
176
     1
 40
0.0
176
     1
 90
        0
176
     1
290
     0
176
     1
290
     1
176
     1
290
     1
176
     1
290
     0
176
     1
290
     0
176
     1
290
     0
176
     1
290
     0
176
     1
290
     0
176
     1
290
     0
176
     1
 90
       50
176
     1
 40
0.0
176
     1
 40
1.0
176
     1
 90
        0
176
     1
 62
    18
420
        0
176
     1
 90
       50
176
     1
 90
        3
176
     1
 62
     5
420
      255
176
     1
290
     0
176
     1
 90
       50
176
     1
 90
       50
176
     1
 90
       50
176
     1
290
     0
176
     1
 90
       50
176
     1
 62
   256
176
     0
 40
1.0
176
     0
 90
        2
176
     1
  1
strokes_ogs.tif
176
     1
290
     0
176
     1
 40
1.0
176
     1
 40
1.0
176
     1
  0
VISUALSTYLE
  5
36
102
{ACAD_REACTORS
330
2A
102
}
330
2A
100
AcDbVisualStyle
  2
Brighten
 70
    12
177
     3
291
     1
 70
    58
 90
        2
176
     1
 90
        2
176
     1
 90
        0
176
     1
 90
        0
176
     1
 40
0.6
176
     1
 40
30.0
176
     1
 62
     7
420
 16777215
176
     1
 90
        1
176
     1
 90
        4
176
     1
 62
     7
176
     1
 62
   257
176
     1
 90
        1
176
     1
 90
        1
176
     1
 40
1.0
176
     1
 90
        8
176
     1
 62
     7
176
     1
 40
1.0
176
     1
 90
        1
176
     1
 90
        6
176
     1
 90
        2
176
     1
 62
     7
176
     1
 90
        5
176
     1
 90
        0
176
     1
 90
        0
176
     1
290
     0
176
     1
 90
        1
176
     1
 40
50.0
176
     1
 90
        0
176
     1
290
     0
176
     1
290
     1
176
     1
290
     1
176
     1
290
     0
176
     1
290
     0
176
     1
290
     0
176
     1
290
     0
176
     1
290
     0
176
     1
290
     0
176
     1
 90
       50
176
     1
 40
0.0
176
     1
 40
1.0
176
     1
 90
        0
176
     1
 62
    18
420
        0
176
     1
 90
       50
176
     1
 90
        3
176
     1
 62
     5
420
      255
176
     1
290
     0
176
     1
 90
       50
176
     1
 90
       50
176
     1
 90
       50
176
     1
290
     0
176
     1
 90
       50
176
     1
 62
   256
176
     0
 40
1.0
176
     0
 90
        2
176
     1
  1
strokes_ogs.tif
176
     1
290
     0
176
     1
 40
1.0
176
     1
 40
1.0
176
     1
  0
VISUALSTYLE
  5
3A
102
{ACAD_REACTORS
330
2A
102
}
330
2A
100
AcDbVisualStyle
  2
ColorChange
 70
    16
177
     3
291
     1
 70
    58
 90
        2
176
     1
 90
        2
176
     1
 90
        3
176
     1
 90
        0
176
     1
 40
0.6
176
     1
 40
30.0
176
     1
 62
     8
420
  8421504
176
     1
 90
        1
176
     1
 90
        4
176
     1
 62
     7
176
     1
 62
   257
176
     1
 90
        1
176
     1
 90
        1
176
     1
 40
1.0
176
     1
 90
        8
176
     1
 62
     8
420
  8421504
176
     1
 40
1.0
176
     1
 90
        1
176
     1
 90
        6
176
     1
 90
        2
176
     1
 62
     7
176
     1
 90
        5
176
     1
 90
        0
176
     1
 90
        0
176
     1
290
     0
176
     1
 90
        1
176
     1
 40
0.0
176
     1
 90
        0
176
     1
290
     0
176
     1
290
     1
176
     1
290
     1
176
     1
290
     0
176
     1
290
     0
176
     1
290
     0
176
     1
290
     0
176
     1
290
     0
176
     1
290
     0
176
     1
 90
       50
176
     1
 40
0.0
176
     1
 40
1.0
176
     1
 90
        0
176
     1
 62
    18
420
        0
176
     1
 90
       50
176
     1
 90
        3
176
     1
 62
     5
420
      255
176
     1
290
     0
176
     1
 90
       50
176
     1
 90
       50
176
     1
 90
       50
176
     1
290
     0
176
     1
 90
       50
176
     1
 62
   256
176
     0
 40
1.0
176
     0
 90
        2
176
     1
  1
strokes_ogs.tif
176
     1
290
     0
176
     1
 40
1.0
176
     1
 40
1.0
176
     1
  0
VISUALSTYLE
  5
34
102
{ACAD_REACTORS
330
2A
102
}
330
2A
100
AcDbVisualStyle
  2
Conceptual
 70
     9
177
     3
291
     0
 70
    58
 90
        3
176
     1
 90
        2
176
     1
 90
        0
176
     1
 90
        0
176
     1
 40
0.6
176
     1
 40
30.0
176
     1
 62
     7
420
 16777215
176
     1
 90
        2
176
     1
 90
        2
176
     1
 62
     7
176
     1
 62
   257
176
     1
 90
        1
176
     1
 90
        1
176
     1
 40
179.0
176
     1
 90
        8
176
     1
 62
     7
176
     1
 40
1.0
176
     1
 90
        1
176
     1
 90
        6
176
     1
 90
        2
176
     1
 62
     7
176
     1
 90
        3
176
     1
 90
        0
176
     1
 90
        0
176
     1
290
     0
176
     1
 90
        1
176
     1
 40
0.0
176
     1
 90
        0
176
     1
290
     0
176
     1
290
     1
176
     1
290
     1
176
     1
290
     0
176
     1
290
     0
176
     1
290
     0
176
     1
290
     0
176
     1
290
     0
176
     1
290
     0
176
     1
 90
       50
176
     1
 40
0.0
176
     1
 40
1.0
176
     1
 90
        0
176
     1
 62
    18
420
        0
176
     1
 90
       50
176
     1
 90
        3
176
     1
 62
     5
420
      255
176
     1
290
     0
176
     1
 90
       50
176
     1
 90
       50
176
     1
 90
       50
176
     1
290
     0
176
     1
 90
       50
176
     1
 62
   256
176
     0
 40
1.0
176
     0
 90
        2
176
     1
  1
strokes_ogs.tif
176
     1
290
     0
176
     1
 40
1.0
176
     1
 40
1.0
176
     1
  0
VISUALSTYLE
  5
35
102
{ACAD_REACTORS
330
2A
102
}
330
2A
100
AcDbVisualStyle
  2
Dim
 70
    11
177
     3
291
     1
 70
    58
 90
        2
176
     1
 90
        2
176
     1
 90
        0
176
     1
 90
        0
176
     1
 40
0.6
176
     1
 40
30.0
176
     1
 62
     7
420
 16777215
176
     1
 90
        1
176
     1
 90
        4
176
     1
 62
     7
176
     1
 62
   257
176
     1
 90
        1
176
     1
 90
        1
176
     1
 40
1.0
176
     1
 90
        8
176
     1
 62
     7
176
     1
 40
1.0
176
     1
 90
        1
176
     1
 90
        6
176
     1
 90
        2
176
     1
 62
     7
176
     1
 90
        5
176
     1
 90
        0
176
     1
 90
        0
176
     1
290
     0
176
     1
 90
        1
176
     1
 40
-50.0
176
     1
 90
        0
176
     1
290
     0
176
     1
290
     1
176
     1
290
     1
176
     1
290
     0
176
     1
290
     0
176
     1
290
     0
176
     1
290
     0
176
     1
290
     0
176
     1
290
     0
176
     1
 90
       50
176
     1
 40
0.0
176
     1
 40
1.0
176
     1
 90
        0
176
     1
 62
    18
420
        0
176
     1
 90
       50
176
     1
 90
        3
176
     1
 62
     5
420
      255
176
     1
290
     0
176
     1
 90
       50
176
     1
 90
       50
176
     1
 90
       50
176
     1
290
     0
176
     1
 90
       50
176
     1
 62
   256
176
     0
 40
1.0
176
     0
 90
        2
176
     1
  1
strokes_ogs.tif
176
     1
290
     0
176
     1
 40
1.0
176
     1
 40
1.0
176
     1
  0
VISUALSTYLE
  5
3D
102
{ACAD_REACTORS
330
2A
102
}
330
2A
100
AcDbVisualStyle
  2
EdgeColorOff
 70
    22
177
     3
291
     1
 70
    58
 90
        2
176
     0
 90
        2
176
     0
 90
        0
176
     0
 90
        0
176
     0
 40
0.6
176
     0
 40
30.0
176
     0
 62
     7
420
 16777215
176
     0
 90
        1
176
     0
 90
        4
176
     0
 62
     7
176
     0
 62
   257
176
     0
 90
        1
176
     0
 90
        1
176
     0
 40
1.0
176
     0
 90
        8
176
     2
 62
     7
176
     0
 40
1.0
176
     0
 90
        1
176
     0
 90
        6
176
     0
 90
        2
176
     0
 62
     7
176
     0
 90
        5
176
     0
 90
        0
176
     0
 90
        0
176
     0
290
     0
176
     0
 90
        1
176
     0
 40
0.0
176
     0
 90
        0
176
     0
290
     0
176
     0
290
     1
176
     0
290
     1
176
     0
290
     0
176
     0
290
     0
176
     0
290
     0
176
     0
290
     0
176
     0
290
     0
176
     0
290
     0
176
     0
 90
       50
176
     0
 40
0.0
176
     0
 40
1.0
176
     0
 90
        0
176
     0
 62
    18
420
        0
176
     0
 90
       50
176
     0
 90
        3
176
     0
 62
     5
420
      255
176
     0
290
     0
176
     0
 90
       50
176
     0
 90
       50
176
     0
 90
       50
176
     0
290
     0
176
     0
 90
       50
176
     0
 62
   256
176
     0
 40
1.0
176
     0
 90
        2
176
     0
  1
strokes_ogs.tif
176
     0
290
     0
176
     0
 40
1.0
176
     0
 40
1.0
176
     0
  0
VISUALSTYLE
  5
39
102
{ACAD_REACTORS
330
2A
102
}
330
2A
100
AcDbVisualStyle
  2
Facepattern
 70
    15
177
     3
291
     1
 70
    58
 90
        2
176
     1
 90
        2
176
     1
 90
        0
176
     1
 90
        0
176
     1
 40
0.6
176
     1
 40
30.0
176
     1
 62
     7
420
 16777215
176
     1
 90
        1
176
     1
 90
        4
176
     1
 62
     7
176
     1
 62
   257
176
     1
 90
        1
176
     1
 90
        1
176
     1
 40
1.0
176
     1
 90
        8
176
     1
 62
     7
176
     1
 40
1.0
176
     1
 90
        1
176
     1
 90
        6
176
     1
 90
        2
176
     1
 62
     7
176
     1
 90
        5
176
     1
 90
        0
176
     1
 90
        0
176
     1
290
     0
176
     1
 90
        1
176
     1
 40
0.0
176
     1
 90
        0
176
     1
290
     0
176
     1
290
     1
176
     1
290
     1
176
     1
290
     0
176
     1
290
     0
176
     1
290
     0
176
     1
290
     0
176
     1
290
     0
176
     1
290
     0
176
     1
 90
       50
176
     1
 40
0.0
176
     1
 40
1.0
176
     1
 90
        0
176
     1
 62
    18
420
        0
176
     1
 90
       50
176
     1
 90
        3
176
     1
 62
     5
420
      255
176
     1
290
     0
176
     1
 90
       50
176
     1
 90
       50
176
     1
 90
       50
176
     1
290
     0
176
     1
 90
       50
176
     1
 62
   256
176
     0
 40
1.0
176
     0
 90
        2
176
     1
  1
strokes_ogs.tif
176
     1
290
     0
176
     1
 40
1.0
176
     1
 40
1.0
176
     1
  0
VISUALSTYLE
  5
2B
102
{ACAD_REACTORS
330
2A
102
}
330
2A
100
AcDbVisualStyle
  2
Flat
 70
     0
177
     3
291
     1
 70
    58
 90
        2
176
     1
 90
        1
176
     1
 90
        1
176
     1
 90
        2
176
     1
 40
0.6
176
     1
 40
30.0
176
     1
 62
     7
420
 16777215
176
     1
 90
        0
176
     1
 90
        0
176
     1
 62
     7
176
     1
 62
   257
176
     1
 90
        1
176
     1
 90
        1
176
     1
 40
1.0
176
     1
 90
        8
176
     1
 62
     7
176
     1
 40
1.0
176
     1
 90
        1
176
     1
 90
        6
176
     1
 90
        2
176
     1
 62
     7
176
     1
 90
        5
176
     1
 90
        0
176
     1
 90
        0
176
     1
290
     0
176
     1
 90
       13
176
     1
 40
0.0
176
     1
 90
        0
176
     1
290
     0
176
     1
290
     1
176
     1
290
     1
176
     1
290
     0
176
     1
290
     0
176
     1
290
     0
176
     1
290
     0
176
     1
290
     0
176
     1
290
     0
176
     1
 90
       50
176
     1
 40
0.0
176
     1
 40
1.0
176
     1
 90
        0
176
     1
 62
    18
420
        0
176
     1
 90
       50
176
     1
 90
        3
176
     1
 62
     5
420
      255
176
     1
290
     0
176
     1
 90
       50
176
     1
 90
       50
176
     1
 90
       50
176
     1
290
     0
176
     1
 90
       50
176
     1
 62
   256
176
     0
 40
1.0
176
     0
 90
        2
176
     1
  1
strokes_ogs.tif
176
     1
290
     0
176
     1
 40
1.0
176
     1
 40
1.0
176
     1
  0
VISUALSTYLE
  5
2C
102
{ACAD_REACTORS
330
2A
102
}
330
2A
100
AcDbVisualStyle
  2
FlatWithEdges
 70
     1
177
     3
291
     1
 70
    58
 90
        2
176
     1
 90
        1
176
     1
 90
        1
176
     1
 90
        2
176
     1
 40
0.6
176
     1
 40
30.0
176
     1
 62
     7
420
 16777215
176
     1
 90
        1
176
     1
 90
        0
176
     1
 62
     7
176
     1
 62
   257
176
     1
 90
        1
176
     1
 90
        1
176
     1
 40
1.0
176
     1
 90
        0
176
     1
 62
   257
176
     1
 40
1.0
176
     1
 90
        1
176
     1
 90
        6
176
     1
 90
        2
176
     1
 62
     7
176
     1
 90
        5
176
     1
 90
        0
176
     1
 90
        0
176
     1
290
     0
176
     1
 90
       13
176
     1
 40
0.0
176
     1
 90
        0
176
     1
290
     0
176
     1
290
     1
176
     1
290
     1
176
     1
290
     0
176
     1
290
     0
176
     1
290
     0
176
     1
290
     0
176
     1
290
     0
176
     1
290
     0
176
     1
 90
       50
176
     1
 40
0.0
176
     1
 40
1.0
176
     1
 90
        0
176
     1
 62
    18
420
        0
176
     1
 90
       50
176
     1
 90
        3
176
     1
 62
     5
420
      255
176
     1
290
     0
176
     1
 90
       50
176
     1
 90
       50
176
     1
 90
       50
176
     1
290
     0
176
     1
 90
       50
176
     1
 62
   256
176
     0
 40
1.0
176
     0
 90
        2
176
     1
  1
strokes_ogs.tif
176
     1
290
     0
176
     1
 40
1.0
176
     1
 40
1.0
176
     1
  0
VISUALSTYLE
  5
2D
102
{ACAD_REACTORS
330
2A
102
}
330
2A
100
AcDbVisualStyle
  2
Gouraud
 70
     2
177
     3
291
     1
 70
    58
 90
        2
176
     1
 90
        2
176
     1
 90
        1
176
     1
 90
        2
176
     1
 40
0.6
176
     1
 40
30.0
176
     1
 62
     7
420
 16777215
176
     1
 90
        0
176
     1
 90
        0
176
     1
 62
     7
176
     1
 62
   257
176
     1
 90
        1
176
     1
 90
        1
176
     1
 40
1.0
176
     1
 90
        0
176
     1
 62
     7
176
     1
 40
1.0
176
     1
 90
        1
176
     1
 90
        6
176
     1
 90
        2
176
     1
 62
     7
176
     1
 90
        5
176
     1
 90
        0
176
     1
 90
        0
176
     1
290
     0
176
     1
 90
       13
176
     1
 40
0.0
176
     1
 90
        0
176
     1
290
     0
176
     1
290
     1
176
     1
290
     1
176
     1
290
     0
176
     1
290
     0
176
     1
290
     0
176
     1
290
     0
176
     1
290
     0
176
     1
290
     0
176
     1
 90
       50
176
     1
 40
0.0
176
     1
 40
1.0
176
     1
 90
        0
176
     1
 62
    18
420
        0
176
     1
 90
       50
176
     1
 90
        3
176
     1
 62
     5
420
      255
176
     1
290
     0
176
     1
 90
       50
176
     1
 90
       50
176
     1
 90
       50
176
     1
290
     0
176
     1
 90
       50
176
     1
 62
   256
176
     0
 40
1.0
176
     0
 90
        2
176
     1
  1
strokes_ogs.tif
176
     1
290
     0
176
     1
 40
1.0
176
     1
 40
1.0
176
     1
  0
VISUALSTYLE
  5
2E
102
{ACAD_REACTORS
330
2A
102
}
330
2A
100
AcDbVisualStyle
  2
GouraudWithEdges
 70
     3
177
     3
291
     1
 70
    58
 90
        2
176
     1
 90
        2
176
     1
 90
        1
176
     1
 90
        2
176
     1
 40
0.6
176
     1
 40
30.0
176
     1
 62
     7
420
 16777215
176
     1
 90
        1
176
     1
 90
        0
176
     1
 62
     7
176
     1
 62
   257
176
     1
 90
        1
176
     1
 90
        1
176
     1
 40
1.0
176
     1
 90
        0
176
     1
 62
   257
176
     1
 40
1.0
176
     1
 90
        1
176
     1
 90
        6
176
     1
 90
        2
176
     1
 62
     7
176
     1
 90
        5
176
     1
 90
        0
176
     1
 90
        0
176
     1
290
     0
176
     1
 90
       13
176
     1
 40
0.0
176
     1
 90
        0
176
     1
290
     0
176
     1
290
     1
176
     1
290
     1
176
     1
290
     0
176
     1
290
     0
176
     1
290
     0
176
     1
290
     0
176
     1
290
     0
176
     1
290
     0
176
     1
 90
       50
176
     1
 40
0.0
176
     1
 40
1.0
176
     1
 90
        0
176
     1
 62
    18
420
        0
176
     1
 90
       50
176
     1
 90
        3
176
     1
 62
     5
420
      255
176
     1
290
     0
176
     1
 90
       50
176
     1
 90
       50
176
     1
 90
       50
176
     1
290
     0
176
     1
 90
       50
176
     1
 62
   256
176
     0
 40
1.0
176
     0
 90
        2
176
     1
  1
strokes_ogs.tif
176
     1
290
     0
176
     1
 40
1.0
176
     1
 40
1.0
176
     1
  0
VISUALSTYLE
  5
31
102
{ACAD_REACTORS
330
2A
102
}
330
2A
100
AcDbVisualStyle
  2
Hidden
 70
     6
177
     3
291
     0
 70
    58
 90
        1
176
     1
 90
        2
176
     1
 90
        2
176
     1
 90
        0
176
     1
 40
0.6
176
     1
 40
30.0
176
     1
 62
     7
420
 16777215
176
     1
 90
        2
176
     1
 90
        2
176
     1
 62
     7
176
     1
 62
   257
176
     1
 90
        2
176
     1
 90
        1
176
     1
 40
40.0
176
     1
 90
        0
176
     1
 62
   257
176
     1
 40
1.0
176
     1
 90
        1
176
     1
 90
        6
176
     1
 90
        2
176
     1
 62
     7
176
     1
 90
        3
176
     1
 90
        0
176
     1
 90
        0
176
     1
290
     0
176
     1
 90
        1
176
     1
 40
0.0
176
     1
 90
        0
176
     1
290
     0
176
     1
290
     1
176
     1
290
     1
176
     1
290
     0
176
     1
290
     0
176
     1
290
     0
176
     1
290
     0
176
     1
290
     0
176
     1
290
     0
176
     1
 90
       50
176
     1
 40
0.0
176
     1
 40
1.0
176
     1
 90
        0
176
     1
 62
    18
420
        0
176
     1
 90
       50
176
     1
 90
        3
176
     1
 62
     5
420
      255
176
     1
290
     0
176
     1
 90
       50
176
     1
 90
       50
176
     1
 90
       50
176
     1
290
     0
176
     1
 90
       50
176
     1
 62
   256
176
     0
 40
1.0
176
     0
 90
        2
176
     1
  1
strokes_ogs.tif
176
     1
290
     0
176
     1
 40
1.0
176
     1
 40
1.0
176
     1
  0
VISUALSTYLE
  5
3B
102
{ACAD_REACTORS
330
2A
102
}
330
2A
100
AcDbVisualStyle
  2
JitterOff
 70
    20
177
     3
291
     1
 70
    58
 90
        2
176
     0
 90
        2
176
     0
 90
        0
176
     0
 90
        0
176
     0
 40
0.6
176
     0
 40
30.0
176
     0
 62
     7
420
 16777215
176
     0
 90
        1
176
     0
 90
        4
176
     0
 62
     7
176
     0
 62
   257
176
     0
 90
        1
176
     0
 90
        1
176
     0
 40
1.0
176
     0
 90
       10
176
     2
 62
     7
176
     0
 40
1.0
176
     0
 90
        1
176
     0
 90
        6
176
     0
 90
        2
176
     0
 62
     7
176
     0
 90
        5
176
     0
 90
        0
176
     0
 90
        0
176
     0
290
     0
176
     0
 90
        1
176
     0
 40
0.0
176
     0
 90
        0
176
     0
290
     0
176
     0
290
     1
176
     0
290
     1
176
     0
290
     0
176
     0
290
     0
176
     0
290
     0
176
     0
290
     0
176
     0
290
     0
176
     0
290
     0
176
     0
 90
       50
176
     0
 40
0.0
176
     0
 40
1.0
176
     0
 90
        0
176
     0
 62
    18
420
        0
176
     0
 90
       50
176
     0
 90
        3
176
     0
 62
     5
420
      255
176
     0
290
     0
176
     0
 90
       50
176
     0
 90
       50
176
     0
 90
       50
176
     0
290
     0
176
     0
 90
       50
176
     0
 62
   256
176
     0
 40
1.0
176
     0
 90
        2
176
     0
  1
strokes_ogs.tif
176
     0
290
     0
176
     0
 40
1.0
176
     0
 40
1.0
176
     0
  0
VISUALSTYLE
  5
38
102
{ACAD_REACTORS
330
2A
102
}
330
2A
100
AcDbVisualStyle
  2
Linepattern
 70
    14
177
     3
291
     1
 70
    58
 90
        2
176
     1
 90
        2
176
     1
 90
        0
176
     1
 90
        0
176
     1
 40
0.6
176
     1
 40
30.0
176
     1
 62
     7
420
 16777215
176
     1
 90
        1
176
     1
 90
        4
176
     1
 62
     7
176
     1
 62
   257
176
     1
 90
        7
176
     1
 90
        7
176
     1
 40
1.0
176
     1
 90
        8
176
     1
 62
     7
176
     1
 40
1.0
176
     1
 90
        1
176
     1
 90
        6
176
     1
 90
        2
176
     1
 62
     7
176
     1
 90
        5
176
     1
 90
        0
176
     1
 90
        0
176
     1
290
     0
176
     1
 90
        1
176
     1
 40
0.0
176
     1
 90
        0
176
     1
290
     0
176
     1
290
     1
176
     1
290
     1
176
     1
290
     0
176
     1
290
     0
176
     1
290
     0
176
     1
290
     0
176
     1
290
     0
176
     1
290
     0
176
     1
 90
       50
176
     1
 40
0.0
176
     1
 40
1.0
176
     1
 90
        0
176
     1
 62
    18
420
        0
176
     1
 90
       50
176
     1
 90
        3
176
     1
 62
     5
420
      255
176
     1
290
     0
176
     1
 90
       50
176
     1
 90
       50
176
     1
 90
       50
176
     1
290
     0
176
     1
 90
       50
176
     1
 62
   256
176
     0
 40
1.0
176
     0
 90
        2
176
     1
  1
strokes_ogs.tif
176
     1
290
     0
176
     1
 40
1.0
176
     1
 40
1.0
176
     1
  0
VISUALSTYLE
  5
3C
102
{ACAD_REACTORS
330
2A
102
}
330
2A
100
AcDbVisualStyle
  2
OverhangOff
 70
    21
177
     3
291
     1
 70
    58
 90
        2
176
     0
 90
        2
176
     0
 90
        0
176
     0
 90
        0
176
     0
 40
0.6
176
     0
 40
30.0
176
     0
 62
     7
420
 16777215
176
     0
 90
        1
176
     0
 90
        4
176
     0
 62
     7
176
     0
 62
   257
176
     0
 90
        1
176
     0
 90
        1
176
     0
 40
1.0
176
     0
 90
        9
176
     2
 62
     7
176
     0
 40
1.0
176
     0
 90
        1
176
     0
 90
        6
176
     0
 90
        2
176
     0
 62
     7
176
     0
 90
        5
176
     0
 90
        0
176
     0
 90
        0
176
     0
290
     0
176
     0
 90
        1
176
     0
 40
0.0
176
     0
 90
        0
176
     0
290
     0
176
     0
290
     1
176
     0
290
     1
176
     0
290
     0
176
     0
290
     0
176
     0
290
     0
176
     0
290
     0
176
     0
290
     0
176
     0
290
     0
176
     0
 90
       50
176
     0
 40
0.0
176
     0
 40
1.0
176
     0
 90
        0
176
     0
 62
    18
420
        0
176
     0
 90
       50
176
     0
 90
        3
176
     0
 62
     5
420
      255
176
     0
290
     0
176
     0
 90
       50
176
     0
 90
       50
176
     0
 90
       50
176
     0
290
     0
176
     0
 90
       50
176
     0
 62
   256
176
     0
 40
1.0
176
     0
 90
        2
176
     0
  1
strokes_ogs.tif
176
     0
290
     0
176
     0
 40
1.0
176
     0
 40
1.0
176
     0
  0
VISUALSTYLE
  5
33
102
{ACAD_REACTORS
330
2A
102
}
330
2A
100
AcDbVisualStyle
  2
Realistic
 70
     8
177
     3
291
     0
 70
    58
 90
        2
176
     1
 90
        3
176
     1
 90
        0
176
     1
 90
        2
176
     1
 40
0.6
176
     1
 40
30.0
176
     1
 62
     7
420
 16777215
176
     1
 90
        0
176
     1
 90
        0
176
     1
 62
     7
176
     1
 62
   257
176
     1
 90
        1
176
     1
 90
        1
176
     1
 40
1.0
176
     1
 90
        8
176
     1
 62
   257
176
     1
 40
1.0
176
     1
 90
        1
176
     1
 90
        6
176
     1
 90
        2
176
     1
 62
     7
176
     1
 90
        3
176
     1
 90
        0
176
     1
 90
        0
176
     1
290
     0
176
     1
 90
       13
176
     1
 40
0.0
176
     1
 90
        0
176
     1
290
     0
176
     1
290
     1
176
     1
290
     1
176
     1
290
     0
176
     1
290
     0
176
     1
290
     0
176
     1
290
     0
176
     1
290
     0
176
     1
290
     0
176
     1
 90
       50
176
     1
 40
0.0
176
     1
 40
1.0
176
     1
 90
        0
176
     1
 62
    18
420
        0
176
     1
 90
       50
176
     1
 90
        3
176
     1
 62
     5
420
      255
176
     1
290
     0
176
     1
 90
       50
176
     1
 90
       50
176
     1
 90
       50
176
     1
290
     0
176
     1
 90
       50
176
     1
 62
   256
176
     0
 40
1.0
176
     0
 90
        2
176
     1
  1
strokes_ogs.tif
176
     1
290
     0
176
     1
 40
1.0
176
     1
 40
1.0
176
     1
  0
VISUALSTYLE
  5
42
102
{ACAD_REACTORS
330
2A
102
}
330
2A
100
AcDbVisualStyle
  2
Shaded
 70
    27
177
     3
291
     0
 70
    58
 90
        2
176
     1
 90
        2
176
     1
 90
        1
176
     1
 90
        2
176
     1
 40
0.6
176
     1
 40
30.0
176
     1
 62
     7
420
 16777215
176
     1
 90
        0
176
     1
 90
        4
176
     1
 62
     7
176
     1
 62
   257
176
     1
 90
        1
176
     1
 90
        1
176
     1
 40
1.0
176
     1
 90
        8
176
     1
 62
   257
176
     1
 40
1.0
176
     1
 90
        1
176
     1
 90
        6
176
     1
 90
        2
176
     1
 62
     8
420
  7895160
176
     1
 90
        3
176
     1
 90
        0
176
     1
 90
        0
176
     1
290
     0
176
     1
 90
        5
176
     1
 40
0.0
176
     1
 90
        0
176
     1
290
     0
176
     1
290
     1
176
     1
290
     1
176
     1
290
     0
176
     1
290
     0
176
     1
290
     0
176
     1
290
     0
176
     1
290
     0
176
     1
290
     0
176
     1
 90
       50
176
     1
 40
0.0
176
     1
 40
1.0
176
     1
 90
        0
176
     1
 62
    18
420
        0
176
     1
 90
       50
176
     1
 90
        3
176
     1
 62
     5
420
      255
176
     1
290
     0
176
     1
 90
       50
176
     1
 90
       50
176
     1
 90
       50
176
     1
290
     0
176
     1
 90
       50
176
     1
 62
   256
176
     0
 40
1.0
176
     0
 90
        2
176
     1
  1
strokes_ogs.tif
176
     1
290
     0
176
     1
 40
1.0
176
     1
 40
1.0
176
     1
  0
VISUALSTYLE
  5
41
102
{ACAD_REACTORS
330
2A
102
}
330
2A
100
AcDbVisualStyle
  2
Shaded with edges
 70
    26
177
     3
291
     0
 70
    58
 90
        2
176
     1
 90
        2
176
     1
 90
        1
176
     1
 90
        2
176
     1
 40
0.6
176
     1
 40
30.0
176
     1
 62
     7
420
 16777215
176
     1
 90
        1
176
     1
 90
       10
176
     1
 62
     7
176
     1
 62
   257
176
     1
 90
        2
176
     1
 90
        1
176
     1
 40
1.0
176
     1
 90
        8
176
     1
 62
   257
176
     1
 40
1.0
176
     1
 90
        1
176
     1
 90
        6
176
     1
 90
        2
176
     1
 62
     7
176
     1
 90
        3
176
     1
 90
        0
176
     1
 90
        0
176
     1
290
     0
176
     1
 90
        5
176
     1
 40
0.0
176
     1
 90
        0
176
     1
290
     0
176
     1
290
     1
176
     1
290
     1
176
     1
290
     0
176
     1
290
     0
176
     1
290
     0
176
     1
290
     0
176
     1
290
     0
176
     1
290
     0
176
     1
 90
       50
176
     1
 40
0.0
176
     1
 40
1.0
176
     1
 90
        0
176
     1
 62
    18
420
        0
176
     1
 90
       50
176
     1
 90
        3
176
     1
 62
     5
420
      255
176
     1
290
     0
176
     1
 90
       50
176
     1
 90
       50
176
     1
 90
       50
176
     1
290
     0
176
     1
 90
       50
176
     1
 62
   256
176
     0
 40
1.0
176
     0
 90
        2
176
     1
  1
strokes_ogs.tif
176
     1
290
     0
176
     1
 40
1.0
176
     1
 40
1.0
176
     1
  0
VISUALSTYLE
  5
3E
102
{ACAD_REACTORS
330
2A
102
}
330
2A
100
AcDbVisualStyle
  2
Shades of Gray
 70
    23
177
     3
291
     0
 70
    58
 90
        2
176
     1
 90
        2
176
     1
 90
        3
176
     1
 90
        0
176
     1
 40
0.6
176
     1
 40
30.0
176
     1
 62
     7
420
 16777215
176
     1
 90
        2
176
     1
 90
        2
176
     1
 62
     7
176
     1
 62
     7
176
     1
 90
        1
176
     1
 90
        1
176
     1
 40
40.0
176
     1
 90
        8
176
     1
 62
     7
176
     1
 40
1.0
176
     1
 90
        1
176
     1
 90
        6
176
     1
 90
        2
176
     1
 62
     7
176
     1
 90
        3
176
     1
 90
        0
176
     1
 90
        0
176
     1
290
     0
176
     1
 90
        1
176
     1
 40
0.0
176
     1
 90
        0
176
     1
290
     0
176
     1
290
     1
176
     1
290
     1
176
     1
290
     0
176
     1
290
     0
176
     1
290
     0
176
     1
290
     0
176
     1
290
     0
176
     1
290
     0
176
     1
 90
       50
176
     1
 40
0.0
176
     1
 40
1.0
176
     1
 90
        0
176
     1
 62
    18
420
        0
176
     1
 90
       50
176
     1
 90
        3
176
     1
 62
     5
420
      255
176
     1
290
     0
176
     1
 90
       50
176
     1
 90
       50
176
     1
 90
       50
176
     1
290
     0
176
     1
 90
       50
176
     1
 62
   256
176
     0
 40
1.0
176
     0
 90
        2
176
     1
  1
strokes_ogs.tif
176
     1
290
     0
176
     1
 40
1.0
176
     1
 40
1.0
176
     1
  0
VISUALSTYLE
  5
3F
102
{ACAD_REACTORS
330
2A
102
}
330
2A
100
AcDbVisualStyle
  2
Sketchy
 70
    24
177
     3
291
     0
 70
    58
 90
        1
176
     1
 90
        2
176
     1
 90
        2
176
     1
 90
        0
176
     1
 40
0.6
176
     1
 40
30.0
176
     1
 62
     7
420
 16777215
176
     1
 90
        2
176
     1
 90
        2
176
     1
 62
     7
176
     1
 62
     7
176
     1
 90
        1
176
     1
 90
        1
176
     1
 40
40.0
176
     1
 90
       11
176
     1
 62
     7
176
     1
 40
1.0
176
     1
 90
        1
176
     1
 90
        6
176
     1
 90
        2
176
     1
 62
     7
176
     1
 90
        6
176
     1
 90
        0
176
     1
 90
        0
176
     1
290
     0
176
     1
 90
        1
176
     1
 40
0.0
176
     1
 90
        0
176
     1
290
     0
176
     1
290
     1
176
     1
290
     1
176
     1
290
     0
176
     1
290
     0
176
     1
290
     0
176
     1
290
     0
176
     1
290
     0
176
     1
290
     0
176
     1
 90
       50
176
     1
 40
0.0
176
     1
 40
1.0
176
     1
 90
        0
176
     1
 62
    18
420
        0
176
     1
 90
       50
176
     1
 90
        3
176
     1
 62
     5
420
      255
176
     1
290
     0
176
     1
 90
       50
176
     1
 90
       50
176
     1
 90
       50
176
     1
290
     0
176
     1
 90
       50
176
     1
 62
   256
176
     0
 40
1.0
176
     0
 90
        2
176
     1
  1
strokes_ogs.tif
176
     1
290
     0
176
     1
 40
1.0
176
     1
 40
1.0
176
     1
  0
VISUALSTYLE
  5
37
102
{ACAD_REACTORS
330
2A
102
}
330
2A
100
AcDbVisualStyle
  2
Thicken
 70
    13
177
     3
291
     1
 70
    58
 90
        2
176
     1
 90
        2
176
     1
 90
        0
176
     1
 90
        0
176
     1
 40
0.6
176
     1
 40
30.0
176
     1
 62
     7
420
 16777215
176
     1
 90
        1
176
     1
 90
        4
176
     1
 62
     7
176
     1
 62
   257
176
     1
 90
        1
176
     1
 90
        1
176
     1
 40
1.0
176
     1
 90
       12
176
     1
 62
     7
176
     1
 40
1.0
176
     1
 90
        1
176
     1
 90
        6
176
     1
 90
        2
176
     1
 62
     7
176
     1
 90
        5
176
     1
 90
        0
176
     1
 90
        0
176
     1
290
     0
176
     1
 90
        1
176
     1
 40
0.0
176
     1
 90
        0
176
     1
290
     0
176
     1
290
     1
176
     1
290
     1
176
     1
290
     0
176
     1
290
     0
176
     1
290
     0
176
     1
290
     0
176
     1
290
     0
176
     1
290
     0
176
     1
 90
       50
176
     1
 40
0.0
176
     1
 40
1.0
176
     1
 90
        0
176
     1
 62
    18
420
        0
176
     1
 90
       50
176
     1
 90
        3
176
     1
 62
     5
420
      255
176
     1
290
     0
176
     1
 90
       50
176
     1
 90
       50
176
     1
 90
       50
176
     1
290
     0
176
     1
 90
       50
176
     1
 62
   256
176
     0
 40
1.0
176
     0
 90
        2
176
     1
  1
strokes_ogs.tif
176
     1
290
     0
176
     1
 40
1.0
176
     1
 40
1.0
176
     1
  0
VISUALSTYLE
  5
30
102
{ACAD_REACTORS
330
2A
102
}
330
2A
100
AcDbVisualStyle
  2
Wireframe
 70
     5
177
     3
291
     0
 70
    58
 90
        0
176
     1
 90
        2
176
     1
 90
        0
176
     1
 90
        0
176
     1
 40
0.6
176
     1
 40
30.0
176
     1
 62
     7
420
 16777215
176
     1
 90
        1
176
     1
 90
        4
176
     1
 62
     7
176
     1
 62
   257
176
     1
 90
        1
176
     1
 90
        1
176
     1
 40
1.0
176
     1
 90
        0
176
     1
 62
   257
176
     1
 40
1.0
176
     1
 90
        1
176
     1
 90
        6
176
     1
 90
        2
176
     1
 62
     7
176
     1
 90
        3
176
     1
 90
        0
176
     1
 90
        0
176
     1
290
     0
176
     1
 90
        1
176
     1
 40
0.0
176
     1
 90
        0
176
     1
290
     0
176
     1
290
     1
176
     1
290
     1
176
     1
290
     0
176
     1
290
     0
176
     1
290
     0
176
     1
290
     0
176
     1
290
     0
176
     1
290
     0
176
     1
 90
       50
176
     1
 40
0.0
176
     1
 40
1.0
176
     1
 90
        0
176
     1
 62
    18
420
        0
176
     1
 90
       50
176
     1
 90
        3
176
     1
 62
     5
420
      255
176
     1
290
     0
176
     1
 90
       50
176
     1
 90
       50
176
     1
 90
       50
176
     1
290
     0
176
     1
 90
       50
176
     1
 62
   256
176
     0
 40
1.0
176
     0
 90
        2
176
     1
  1
strokes_ogs.tif
176
     1
290
     0
176
     1
 40
1.0
176
     1
 40
1.0
176
     1
  0
VISUALSTYLE
  5
40
102
{ACAD_REACTORS
330
2A
102
}
330
2A
100
AcDbVisualStyle
  2
X-Ray
 70
    25
177
     3
291
     0
 70
    58
 90
        2
176
     1
 90
        2
176
     1
 90
        1
176
     1
 90
        1
176
     1
 40
0.5
176
     1
 40
30.0
176
     1
 62
     7
420
 16777215
176
     1
 90
        1
176
     1
 90
        0
176
     1
 62
     7
176
     1
 62
   257
176
     1
 90
        1
176
     1
 90
        1
176
     1
 40
1.0
176
     1
 90
        8
176
     1
 62
     7
176
     1
 40
1.0
176
     1
 90
        1
176
     1
 90
        6
176
     1
 90
        2
176
     1
 62
     7
176
     1
 90
        3
176
     1
 90
        0
176
     1
 90
        0
176
     1
290
     0
176
     1
 90
       13
176
     1
 40
0.0
176
     1
 90
        0
176
     1
290
     0
176
     1
290
     1
176
     1
290
     1
176
     1
290
     0
176
     1
290
     0
176
     1
290
     0
176
     1
290
     0
176
     1
290
     0
176
     1
290
     0
176
     1
 90
       50
176
     1
 40
0.0
176
     1
 40
1.0
176
     1
 90
        0
176
     1
 62
    18
420
        0
176
     1
 90
       50
176
     1
 90
        3
176
     1
 62
     5
420
      255
176
     1
290
     0
176
     1
 90
       50
176
     1
 90
       50
176
     1
 90
       50
176
     1
290
     0
176
     1
 90
       50
176
     1
 62
   256
176
     0
 40
1.0
176
     0
 90
        2
176
     1
  1
strokes_ogs.tif
176
     1
290
     0
176
     1
 40
1.0
176
     1
 40
1.0
176
     1
  0
DICTIONARYVAR
  5
413
102
{ACAD_REACTORS
330
412
102
}
330
412
100
DictionaryVariables
280
     0
  1
1:1
  0
DICTIONARYVAR
  5
418
102
{ACAD_REACTORS
330
412
102
}
330
412
100
DictionaryVariables
280
     0
  1
Standard
  0
DICTIONARYVAR
  5
417
102
{ACAD_REACTORS
330
412
102
}
330
412
100
DictionaryVariables
280
     0
  1
Standard
  0
DICTIONARYVAR
  5
41B
102
{ACAD_REACTORS
330
412
102
}
330
412
100
DictionaryVariables
280
     0
  1
6.000000
  0
DICTIONARY
  5
414
330
6A
100
AcDbDictionary
280
     1
281
     1
  3
ACAD_ROUNDTRIP_2008_TABLESTYLE_CELLSTYLEMAP
360
415
  0
CELLSTYLEMAP
  5
415
102
{ACAD_REACTORS
330
414
102
}
330
414
100
AcDbCellStyleMap
 90
        3
300
CELLSTYLE
  1
TABLEFORMAT_BEGIN
 90
        5
170
     1
 91
        0
 92
    32768
 62
   257
 93
        1
300
CONTENTFORMAT
  1
CONTENTFORMAT_BEGIN
 90
        0
 91
        0
 92
        4
 93
        0
300

 40
0.0
140
1.0
 94
        5
 62
     0
340
11
144
6.0
309
CONTENTFORMAT_END
171
     1
301
MARGIN
  1
CELLMARGIN_BEGIN
 40
1.5
 40
1.5
 40
1.5
 40
1.5
 40
1.5
 40
1.5
309
CELLMARGIN_END
 94
        6
 95
        1
302
GRIDFORMAT
  1
GRIDFORMAT_BEGIN
 90
        0
 91
        1
 62
     0
 92
       -2
340
14
 93
        0
 40
0.045
309
GRIDFORMAT_END
 95
        2
302
GRIDFORMAT
  1
GRIDFORMAT_BEGIN
 90
        0
 91
        1
 62
     0
 92
       -2
340
14
 93
        0
 40
0.045
309
GRIDFORMAT_END
 95
        4
302
GRIDFORMAT
  1
GRIDFORMAT_BEGIN
 90
        0
 91
        1
 62
     0
 92
       -2
340
14
 93
        0
 40
0.045
309
GRIDFORMAT_END
 95
        8
302
GRIDFORMAT
  1
GRIDFORMAT_BEGIN
 90
        0
 91
        1
 62
     0
 92
       -2
340
14
 93
        0
 40
0.045
309
GRIDFORMAT_END
 95
       16
302
GRIDFORMAT
  1
GRIDFORMAT_BEGIN
 90
        0
 91
        1
 62
     0
 92
       -2
340
14
 93
        0
 40
0.045
309
GRIDFORMAT_END
 95
       32
302
GRIDFORMAT
  1
GRIDFORMAT_BEGIN
 90
        0
 91
        1
 62
     0
 92
       -2
340
14
 93
        0
 40
0.045
309
GRIDFORMAT_END
309
TABLEFORMAT_END
  1
CELLSTYLE_BEGIN
 90
        1
 91
        1
300
_TITLE
309
CELLSTYLE_END
300
CELLSTYLE
  1
TABLEFORMAT_BEGIN
 90
        5
170
     1
 91
        0
 92
        0
 62
   257
 93
        1
300
CONTENTFORMAT
  1
CONTENTFORMAT_BEGIN
 90
        0
 91
        0
 92
        4
 93
        0
300

 40
0.0
140
1.0
 94
        5
 62
     0
340
11
144
4.5
309
CONTENTFORMAT_END
171
     1
301
MARGIN
  1
CELLMARGIN_BEGIN
 40
1.5
 40
1.5
 40
1.5
 40
1.5
 40
1.5
 40
1.5
309
CELLMARGIN_END
 94
        6
 95
        1
302
GRIDFORMAT
  1
GRIDFORMAT_BEGIN
 90
        0
 91
        1
 62
     0
 92
       -2
340
14
 93
        0
 40
0.045
309
GRIDFORMAT_END
 95
        2
302
GRIDFORMAT
  1
GRIDFORMAT_BEGIN
 90
        0
 91
        1
 62
     0
 92
       -2
340
14
 93
        0
 40
0.045
309
GRIDFORMAT_END
 95
        4
302
GRIDFORMAT
  1
GRIDFORMAT_BEGIN
 90
        0
 91
        1
 62
     0
 92
       -2
340
14
 93
        0
 40
0.045
309
GRIDFORMAT_END
 95
        8
302
GRIDFORMAT
  1
GRIDFORMAT_BEGIN
 90
        0
 91
        1
 62
     0
 92
       -2
340
14
 93
        0
 40
0.045
309
GRIDFORMAT_END
 95
       16
302
GRIDFORMAT
  1
GRIDFORMAT_BEGIN
 90
        0
 91
        1
 62
     0
 92
       -2
340
14
 93
        0
 40
0.045
309
GRIDFORMAT_END
 95
       32
302
GRIDFORMAT
  1
GRIDFORMAT_BEGIN
 90
        0
 91
        1
 62
     0
 92
       -2
340
14
 93
        0
 40
0.045
309
GRIDFORMAT_END
309
TABLEFORMAT_END
  1
CELLSTYLE_BEGIN
 90
        2
 91
        1
300
_HEADER
309
CELLSTYLE_END
300
CELLSTYLE
  1
TABLEFORMAT_BEGIN
 90
        5
170
     1
 91
        0
 92
        0
 62
   257
 93
        1
300
CONTENTFORMAT
  1
CONTENTFORMAT_BEGIN
 90
        0
 91
        0
 92
        4
 93
        0
300

 40
0.0
140
1.0
 94
        2
 62
     0
340
11
144
4.5
309
CONTENTFORMAT_END
171
     1
301
MARGIN
  1
CELLMARGIN_BEGIN
 40
1.5
 40
1.5
 40
1.5
 40
1.5
 40
1.5
 40
1.5
309
CELLMARGIN_END
 94
        6
 95
        1
302
GRIDFORMAT
  1
GRIDFORMAT_BEGIN
 90
        0
 91
        1
 62
     0
 92
       -2
340
14
 93
        0
 40
0.045
309
GRIDFORMAT_END
 95
        2
302
GRIDFORMAT
  1
GRIDFORMAT_BEGIN
 90
        0
 91
        1
 62
     0
 92
       -2
340
14
 93
        0
 40
0.045
309
GRIDFORMAT_END
 95
        4
302
GRIDFORMAT
  1
GRIDFORMAT_BEGIN
 90
        0
 91
        1
 62
     0
 92
       -2
340
14
 93
        0
 40
0.045
309
GRIDFORMAT_END
 95
        8
302
GRIDFORMAT
  1
GRIDFORMAT_BEGIN
 90
        0
 91
        1
 62
     0
 92
       -2
340
14
 93
        0
 40
0.045
309
GRIDFORMAT_END
 95
       16
302
GRIDFORMAT
  1
GRIDFORMAT_BEGIN
 90
        0
 91
        1
 62
     0
 92
       -2
340
14
 93
        0
 40
0.045
309
GRIDFORMAT_END
 95
       32
302
GRIDFORMAT
  1
GRIDFORMAT_BEGIN
 90
        0
 91
        1
 62
     0
 92
       -2
340
14
 93
        0
 40
0.045
309
GRIDFORMAT_END
309
TABLEFORMAT_END
  1
CELLSTYLE_BEGIN
 90
        3
 91
        2
300
_DATA
309
CELLSTYLE_END
  0
ENDSEC
  0
EOF
